999
dxflib 2.0.4.0
  0
SECTION
  2
HEADER
  9
$ACADVER
  1
AC1015
  9
$HANDSEED
  5
FFFF
  9
$DIMASZ
 40
0.0025
  9
$EXTMIN
 10
0.0
 20
0.0
 30
0.0
  9
$DIMGAP
 40
0.000625
  9
$INSUNITS
 70
6
  9
$DIMEXO
 40
0.000625
  9
$EXTMAX
 10
1533.0
 20
2325.0
 30
0.0
  9
$GRIDMODE
 70
1
  9
$DIMTXT
 40
0.0025
  9
$DIMSTYLE
  2
Standard
  9
$PLIMMIN
 10
0.0
 20
0.0
  9
$PLIMMAX
 10
0.21
 20
0.297
  9
$DIMEXE
 40
0.00125
  0
ENDSEC
  0
SECTION
  2
TABLES
  0
TABLE
  2
VPORT
  5
8
100
AcDbSymbolTable
 70
1
  0
VPORT
  5
30
100
AcDbSymbolTableRecord
100
AcDbViewportTableRecord
  2
*Active
 70
0
 10
0.0
 20
0.0
 11
1.0
 21
1.0
 12
286.3055555555554861
 22
148.5
 13
0.0
 23
0.0
 14
10.0
 24
10.0
 15
10.0
 25
10.0
 16
0.0
 26
0.0
 36
1.0
 17
0.0
 27
0.0
 37
0.0
 40
297.0
 41
1.92798353909465
 42
50.0
 43
0.0
 44
0.0
 50
0.0
 51
0.0
 71
0
 72
100
 73
1
 74
3
 75
1
 76
1
 77
0
 78
0
281
0
 65
1
110
0.0
120
0.0
130
0.0
111
1.0
121
0.0
131
0.0
112
0.0
122
1.0
132
0.0
 79
0
146
0.0
  0
ENDTAB
  0
TABLE
  2
LTYPE
  5
5
100
AcDbSymbolTable
 70
21
  0
LTYPE
  5
14
100
AcDbSymbolTableRecord
100
AcDbLinetypeTableRecord
  2
ByBlock
 70
0
  3

 72
65
 73
0
 40
0.0
  0
LTYPE
  5
15
100
AcDbSymbolTableRecord
100
AcDbLinetypeTableRecord
  2
ByLayer
 70
0
  3

 72
65
 73
0
 40
0.0
  0
LTYPE
  5
16
100
AcDbSymbolTableRecord
100
AcDbLinetypeTableRecord
  2
CONTINUOUS
 70
0
  3
Solid line
 72
65
 73
0
 40
0.0
  0
LTYPE
  5
31
100
AcDbSymbolTableRecord
100
AcDbLinetypeTableRecord
  2
DOT
 70
0
  3
Dot . . . . . . . . . . . . . . . . . . . . . .
 72
65
 73
2
 40
6.3499999999999996
 49
0.0
 74
0
 49
-6.3499999999999996
 74
0
  0
LTYPE
  5
32
100
AcDbSymbolTableRecord
100
AcDbLinetypeTableRecord
  2
DOT2
 70
0
  3
Dot (.5x) .....................................
 72
65
 73
2
 40
3.1749999999999998
 49
0.0
 74
0
 49
-3.1749999999999998
 74
0
  0
LTYPE
  5
33
100
AcDbSymbolTableRecord
100
AcDbLinetypeTableRecord
  2
DOTX2
 70
0
  3
Dot (2x) .  .  .  .  .  .  .  .  .  .  .  .  .
 72
65
 73
2
 40
12.6999999999999993
 49
0.0
 74
0
 49
-12.6999999999999993
 74
0
  0
LTYPE
  5
34
100
AcDbSymbolTableRecord
100
AcDbLinetypeTableRecord
  2
DASHED
 70
0
  3
Dashed __ __ __ __ __ __ __ __ __ __ __ __ __ _
 72
65
 73
2
 40
19.0500000000000007
 49
12.6999999999999993
 74
0
 49
-6.3499999999999996
 74
0
  0
LTYPE
  5
35
100
AcDbSymbolTableRecord
100
AcDbLinetypeTableRecord
  2
DASHED2
 70
0
  3
Dashed (.5x) _ _ _ _ _ _ _ _ _ _ _ _ _ _ _ _ _
 72
65
 73
2
 40
9.5250000000000004
 49
6.3499999999999996
 74
0
 49
-3.1749999999999998
 74
0
  0
LTYPE
  5
36
100
AcDbSymbolTableRecord
100
AcDbLinetypeTableRecord
  2
DASHEDX2
 70
0
  3
Dashed (2x) ____  ____  ____  ____  ____  ___
 72
65
 73
2
 40
38.1000000000000014
 49
25.3999999999999986
 74
0
 49
-12.6999999999999993
 74
0
  0
LTYPE
  5
37
100
AcDbSymbolTableRecord
100
AcDbLinetypeTableRecord
  2
DASHDOT
 70
0
  3
Dash dot __ . __ . __ . __ . __ . __ . __ . __
 72
65
 73
4
 40
25.3999999999999986
 49
12.6999999999999993
 74
0
 49
-6.3499999999999996
 74
0
 49
0.0
 74
0
 49
-6.3499999999999996
 74
0
  0
LTYPE
  5
38
100
AcDbSymbolTableRecord
100
AcDbLinetypeTableRecord
  2
DASHDOT2
 70
0
  3
Dash dot (.5x) _._._._._._._._._._._._._._._.
 72
65
 73
4
 40
12.6999999999999993
 49
6.3499999999999996
 74
0
 49
-3.1749999999999998
 74
0
 49
0.0
 74
0
 49
-3.1749999999999998
 74
0
  0
LTYPE
  5
39
100
AcDbSymbolTableRecord
100
AcDbLinetypeTableRecord
  2
DASHDOTX2
 70
0
  3
Dash dot (2x) ____  .  ____  .  ____  .  ___
 72
65
 73
4
 40
50.7999999999999972
 49
25.3999999999999986
 74
0
 49
-12.6999999999999993
 74
0
 49
0.0
 74
0
 49
-12.6999999999999993
 74
0
  0
LTYPE
  5
3A
100
AcDbSymbolTableRecord
100
AcDbLinetypeTableRecord
  2
DIVIDE
 70
0
  3
Divide ____ . . ____ . . ____ . . ____ . . ____
 72
65
 73
6
 40
31.75
 49
12.6999999999999993
 74
0
 49
-6.3499999999999996
 74
0
 49
0.0
 74
0
 49
-6.3499999999999996
 74
0
 49
0.0
 74
0
 49
-6.3499999999999996
 74
0
  0
LTYPE
  5
3B
100
AcDbSymbolTableRecord
100
AcDbLinetypeTableRecord
  2
DIVIDE2
 70
0
  3
Divide (.5x) __..__..__..__..__..__..__..__.._
 72
65
 73
6
 40
15.875
 49
6.3499999999999996
 74
0
 49
-3.1749999999999998
 74
0
 49
0.0
 74
0
 49
-3.1749999999999998
 74
0
 49
0.0
 74
0
 49
-3.1749999999999998
 74
0
  0
LTYPE
  5
3C
100
AcDbSymbolTableRecord
100
AcDbLinetypeTableRecord
  2
DIVIDEX2
 70
0
  3
Divide (2x) ________  .  .  ________  .  .  _
 72
65
 73
6
 40
63.5
 49
25.3999999999999986
 74
0
 49
-12.6999999999999993
 74
0
 49
0.0
 74
0
 49
-12.6999999999999993
 74
0
 49
0.0
 74
0
 49
-12.6999999999999993
 74
0
  0
LTYPE
  5
3D
100
AcDbSymbolTableRecord
100
AcDbLinetypeTableRecord
  2
CENTER
 70
0
  3
Center ____ _ ____ _ ____ _ ____ _ ____ _ ____
 72
65
 73
4
 40
50.7999999999999972
 49
31.75
 74
0
 49
-6.3499999999999996
 74
0
 49
6.3499999999999996
 74
0
 49
-6.3499999999999996
 74
0
  0
LTYPE
  5
3E
100
AcDbSymbolTableRecord
100
AcDbLinetypeTableRecord
  2
CENTER2
 70
0
  3
Center (.5x) ___ _ ___ _ ___ _ ___ _ ___ _ ___
 72
65
 73
4
 40
28.5749999999999993
 49
19.0500000000000007
 74
0
 49
-3.1749999999999998
 74
0
 49
3.1749999999999998
 74
0
 49
-3.1749999999999998
 74
0
  0
LTYPE
  5
3F
100
AcDbSymbolTableRecord
100
AcDbLinetypeTableRecord
  2
CENTERX2
 70
0
  3
Center (2x) ________  __  ________  __  _____
 72
65
 73
4
 40
101.5999999999999943
 49
63.5
 74
0
 49
-12.6999999999999993
 74
0
 49
12.6999999999999993
 74
0
 49
-12.6999999999999993
 74
0
  0
LTYPE
  5
40
100
AcDbSymbolTableRecord
100
AcDbLinetypeTableRecord
  2
BORDER
 70
0
  3
Border __ __ . __ __ . __ __ . __ __ . __ __ .
 72
65
 73
6
 40
44.4500000000000028
 49
12.6999999999999993
 74
0
 49
-6.3499999999999996
 74
0
 49
12.6999999999999993
 74
0
 49
-6.3499999999999996
 74
0
 49
0.0
 74
0
 49
-6.3499999999999996
 74
0
  0
LTYPE
  5
41
100
AcDbSymbolTableRecord
100
AcDbLinetypeTableRecord
  2
BORDER2
 70
0
  3
Border (.5x) __.__.__.__.__.__.__.__.__.__.__.
 72
65
 73
6
 40
22.2250000000000014
 49
6.3499999999999996
 74
0
 49
-3.1749999999999998
 74
0
 49
6.3499999999999996
 74
0
 49
-3.1749999999999998
 74
0
 49
0.0
 74
0
 49
-3.1749999999999998
 74
0
  0
LTYPE
  5
42
100
AcDbSymbolTableRecord
100
AcDbLinetypeTableRecord
  2
BORDERX2
 70
0
  3
Border (2x) ____  ____  .  ____  ____  .  ___
 72
65
 73
6
 40
88.9000000000000057
 49
25.3999999999999986
 74
0
 49
-12.6999999999999993
 74
0
 49
25.3999999999999986
 74
0
 49
-12.6999999999999993
 74
0
 49
0.0
 74
0
 49
-12.6999999999999993
 74
0
  0
ENDTAB
  0
TABLE
  2
LAYER
  5
2
100
AcDbSymbolTable
 70
5
  0
LAYER
  5
10
100
AcDbSymbolTableRecord
100
AcDbLayerTableRecord
  2
0
 70
0
 62
7
  6
CONTINUOUS
390
F
  0
LAYER
  5
43
100
AcDbSymbolTableRecord
100
AcDbLayerTableRecord
  2
trapper
 70
1
 62
7
  6
CONTINUOUS
370
-3
390
F
  0
LAYER
  5
44
100
AcDbSymbolTableRecord
100
AcDbLayerTableRecord
  2
baering
 70
1
 62
7
  6
CONTINUOUS
370
0
390
F
  0
LAYER
  5
45
100
AcDbSymbolTableRecord
100
AcDbLayerTableRecord
  2
fyld
 70
0
 62
7
  6
CONTINUOUS
370
0
390
F
  0
LAYER
  5
46
100
AcDbSymbolTableRecord
100
AcDbLayerTableRecord
  2
tmp
 70
1
 62
2
  6
CONTINUOUS
370
0
390
F
  0
ENDTAB
  0
TABLE
  2
STYLE
  5
3
100
AcDbSymbolTable
 70
1
  0
STYLE
  5
11
100
AcDbSymbolTableRecord
100
AcDbTextStyleTableRecord
  2
Standard
 70
0
 40
0.0
 41
1.0
 50
0.0
 71
0
 42
2.5
  3
txt
  4

  0
ENDTAB
  0
TABLE
  2
VIEW
  5
6
100
AcDbSymbolTable
 70
0
  0
ENDTAB
  0
TABLE
  2
UCS
  5
7
100
AcDbSymbolTable
 70
0
  0
ENDTAB
  0
TABLE
  2
APPID
  5
9
100
AcDbSymbolTable
 70
1
  0
APPID
  5
12
100
AcDbSymbolTableRecord
100
AcDbRegAppTableRecord
  2
ACAD
 70
0
  0
ENDTAB
  0
TABLE
  2
DIMSTYLE
  5
A
100
AcDbSymbolTable
 70
1
100
AcDbDimStyleTable
 71
0
  0
DIMSTYLE
105
27
100
AcDbSymbolTableRecord
100
AcDbDimStyleTableRecord
  2
Standard
 41
2.5
 42
0.625
 43
3.75
 44
1.25
 70
0
 73
0
 74
0
 77
1
 78
8
140
2.5
141
2.5
143
0.03937007874016
147
0.625
171
3
172
1
271
2
272
2
274
3
278
44
283
0
284
8
340
11
  0
ENDTAB
  0
TABLE
  2
BLOCK_RECORD
  5
1
100
AcDbSymbolTable
 70
1
  0
BLOCK_RECORD
  5
1F
100
AcDbSymbolTableRecord
100
AcDbBlockTableRecord
  2
*Model_Space
340
22
  0
BLOCK_RECORD
  5
1B
100
AcDbSymbolTableRecord
100
AcDbBlockTableRecord
  2
*Paper_Space
340
1E
  0
BLOCK_RECORD
  5
23
100
AcDbSymbolTableRecord
100
AcDbBlockTableRecord
  2
*Paper_Space0
340
26
  0
ENDTAB
  0
ENDSEC
  0
SECTION
  2
BLOCKS
  0
BLOCK
  5
20
100
AcDbEntity
  8
0
100
AcDbBlockBegin
  2
*Model_Space
 70
0
 10
0.0
 20
0.0
 30
0.0
  3
*Model_Space
  1

  0
ENDBLK
  5
21
100
AcDbEntity
  8
0
100
AcDbBlockEnd
  0
BLOCK
  5
1C
100
AcDbEntity
 67
1
  8
0
100
AcDbBlockBegin
  2
*Paper_Space
 70
0
 10
0.0
 20
0.0
 30
0.0
  3
*Paper_Space
  1

  0
ENDBLK
  5
1D
100
AcDbEntity
 67
1
  8
0
100
AcDbBlockEnd
  0
BLOCK
  5
24
100
AcDbEntity
  8
0
100
AcDbBlockBegin
  2
*Paper_Space0
 70
0
 10
0.0
 20
0.0
 30
0.0
  3
*Paper_Space0
  1

  0
ENDBLK
  5
25
100
AcDbEntity
  8
0
100
AcDbBlockEnd
  0
ENDSEC
  0
SECTION
  2
ENTITIES
  0
HATCH
  5
47
  8
baering
 62
256
370
-1
  6
ByLayer
100
AcDbEntity
100
AcDbHatch
 10
0.0
 20
0.0
 30
0.0
210
0.0
220
0.0
230
1.0
  2
ANSI31
 70
0
 71
0
 91
1
 92
1
 93
6
 72
1
 10
811.1205488893311895
 20
1141.4869361327673687
 11
811.116369999706194
 21
1141.604711733710019
 72
1
 10
811.116369999706194
 20
1141.604711733710019
 11
811.2942508397308075
 21
1141.7529780635900352
 72
1
 10
811.2942508397308075
 20
1141.7529780635900352
 11
811.4355579703561716
 21
1141.6153611621091386
 72
1
 10
811.4355579703561716
 20
1141.6153611621091386
 11
811.3402439011476872
 21
1141.5389700487428399
 72
1
 10
811.3402439011476872
 20
1141.5389700487428399
 11
811.3413138990960078
 21
1141.4842316497640695
 72
1
 10
811.3413138990960078
 20
1141.4842316497640695
 11
811.1205488893311895
 21
1141.4869361327673687
 97
0
 75
0
 76
1
 52
0.0
 41
0.0589762648686874
 77
0
 78
1
 53
45.0
 43
0.0
 44
0.0
 45
-0.0883883476483184
 46
0.0883883476483185
 79
0
 98
0
  0
HATCH
  5
48
  8
fyld
 62
256
370
-1
  6
ByLayer
100
AcDbEntity
100
AcDbHatch
 10
0.0
 20
0.0
 30
0.0
210
0.0
220
0.0
230
1.0
  2
ar-brstd
 70
0
 71
0
 91
1
 92
1
 93
4
 72
1
 10
811.1211044248215103
 20
1139.6988519676137912
 11
811.1207265062607803
 21
1140.6425083019510112
 72
1
 10
811.1207265062607803
 20
1140.6425083019510112
 11
811.3474907839375874
 21
1140.6455830718177822
 72
1
 10
811.3474907839375874
 20
1140.6455830718177822
 11
811.3559464010712645
 21
1139.6962478754419408
 72
1
 10
811.3559464010712645
 20
1139.6962478754419408
 11
811.1211044248215103
 21
1139.6988519676137912
 97
0
 75
0
 76
1
 52
0.0
 41
0.002527554208658
 77
0
 78
1
 53
45.0
 43
0.0
 44
0.0
 45
-0.0883883476483184
 46
0.0883883476483185
 79
0
 98
0
  0
HATCH
  5
49
  8
baering
 62
256
370
-1
  6
ByLayer
100
AcDbEntity
100
AcDbHatch
 10
0.0
 20
0.0
 30
0.0
210
0.0
220
0.0
230
1.0
  2
ANSI31
 70
0
 71
0
 91
1
 92
1
 93
25
 72
1
 10
806.9397019447194452
 20
1139.2653992354946695
 11
806.4097325833419063
 21
1139.2653177397123727
 72
1
 10
806.4097325833419063
 20
1139.2653177397123727
 11
806.4087062125581724
 21
1138.4965660226907858
 72
1
 10
806.4087062125581724
 20
1138.4965660226907858
 11
816.467610486856529
 21
1138.4891670493370839
 72
1
 10
816.467610486856529
 20
1138.4891670493370839
 11
816.4710808703551947
 21
1139.6709034233847433
 72
1
 10
816.4710808703551947
 20
1139.6709034233847433
 11
815.9798316556043574
 21
1139.6664543167562442
 72
1
 10
815.9798316556043574
 20
1139.6664543167562442
 11
815.9827045658812494
 21
1138.8390561570211048
 72
1
 10
815.9827045658812494
 20
1138.8390561570211048
 11
811.3633659884022791
 21
1138.8910887567674308
 72
1
 10
811.3633659884022791
 20
1138.8910887567674308
 11
811.3652549434070806
 21
1139.6795717908744336
 72
1
 10
811.3652549434070806
 20
1139.6795717908744336
 11
811.1207265062607803
 21
1139.6939417980418057
 72
1
 10
811.1207265062607803
 20
1139.6939417980418057
 11
811.120547189586091
 21
1139.1917215553016831
 72
1
 10
811.120547189586091
 20
1139.1917215553016831
 11
810.767065093349288
 21
1139.1713274358878607
 72
1
 10
810.767065093349288
 20
1139.1713274358878607
 11
810.742145360396421
 21
1138.8915933606615454
 72
1
 10
810.742145360396421
 20
1138.8915933606615454
 11
806.9463764099367609
 21
1138.9026515567109072
 72
1
 10
806.9463764099367609
 20
1138.9026515567109072
 11
806.9397019447194452
 21
1139.2653992354946695
 72
1
 10
806.9488119184672996
 20
1140.6734176936620315
 11
806.4116125594313189
 21
1140.6734198307406132
 72
1
 10
806.4116125594313189
 20
1140.6734198307406132
 11
806.4124063085400849
 21
1141.2679379131793667
 72
1
 10
806.4124063085400849
 20
1141.2679379131793667
 11
806.349981775072024
 21
1141.3997230393897553
 72
1
 10
806.349981775072024
 20
1141.3997230393897553
 11
806.8830158775117525
 21
1141.6523279735777123
 72
1
 10
806.8830158775117525
 20
1141.6523279735777123
 11
806.9187849729635218
 21
1141.5990955360396129
 72
1
 10
806.9187849729635218
 20
1141.5990955360396129
 11
806.9521578099086128
 21
1141.4985001440552423
 72
1
 10
806.9521578099086128
 20
1141.4985001440552423
 11
806.9488119184672996
 21
1140.6734176936620315
 72
1
 10
811.348259476404337
 20
1140.6448143793511463
 11
811.1207265062607803
 21
1140.6425083019510112
 72
1
 10
811.1207265062607803
 20
1140.6425083019510112
 11
811.120547189586091
 21
1141.4869373441115386
 72
1
 10
811.120547189586091
 20
1141.4869373441115386
 11
811.3493194012946788
 21
1141.4841375515018171
 72
1
 10
811.3493194012946788
 20
1141.4841375515018171
 11
811.348259476404337
 21
1140.6448143793511463
 97
0
 75
0
 76
1
 52
0.0
 41
0.0589762648686874
 77
0
 78
1
 53
45.0
 43
0.0
 44
0.0
 45
-0.0883883476483184
 46
0.0883883476483185
 79
0
 98
0
  0
HATCH
  5
4A
  8
trapper
 62
256
370
-1
  6
ByLayer
100
AcDbEntity
100
AcDbHatch
 10
0.0
 20
0.0
 30
0.0
210
0.0
220
0.0
230
1.0
  2
ANSI31
 70
0
 71
0
 91
1
 92
1
 93
4
 72
1
 10
809.6416650767962437
 20
1142.9588817769354137
 11
809.6531311077951614
 21
1144.0242928759550978
 72
1
 10
809.6531311077951614
 20
1144.0242928759550978
 11
810.1250250505358963
 21
1144.0242928759550978
 72
1
 10
810.1250250505358963
 20
1144.0242928759550978
 11
810.1250377572083607
 21
1142.9651685878964145
 72
1
 10
810.1250377572083607
 20
1142.9651685878964145
 11
809.6416650767962437
 21
1142.9588817769354137
 97
0
 75
0
 76
1
 52
0.0
 41
0.0589762648686874
 77
0
 78
1
 53
45.0
 43
0.0
 44
0.0
 45
-0.0883883476483184
 46
0.0883883476483185
 79
0
 98
0
  0
HATCH
  5
4B
  8
trapper
 62
256
370
-1
  6
ByLayer
100
AcDbEntity
100
AcDbHatch
 10
0.0
 20
0.0
 30
0.0
210
0.0
220
0.0
230
1.0
  2
ANSI31
 70
0
 71
0
 91
1
 92
1
 93
4
 72
1
 10
809.6726671355340841
 20
1144.0103168359894426
 11
809.7484900095365674
 21
1144.0095624965879324
 72
1
 10
809.7484900095365674
 20
1144.0095624965879324
 11
809.6726671355340841
 21
1144.0103168359894426
 72
1
 10
809.6726671355340841
 20
1144.0103168359894426
 11
809.7484900095365674
 21
1144.0095624965879324
 72
1
 10
809.7484900095365674
 20
1144.0095624965879324
 11
809.6726671355340841
 21
1144.0103168359894426
 97
0
 75
0
 76
1
 52
0.0
 41
0.0589762648686874
 77
0
 78
1
 53
45.0
 43
0.0
 44
0.0
 45
-0.0883883476483184
 46
0.0883883476483185
 79
0
 98
0
  0
HATCH
  5
4C
  8
baering
 62
256
370
-1
  6
ByLayer
100
AcDbEntity
100
AcDbHatch
 10
0.0
 20
0.0
 30
0.0
210
0.0
220
0.0
230
1.0
  2
ANSI31
 70
0
 71
0
 91
1
 92
1
 93
29
 72
1
 10
804.8140891736970843
 20
1144.0418044290056514
 11
804.4519515224893667
 21
1144.0513595322379388
 72
1
 10
804.4519515224893667
 20
1144.0513595322379388
 11
804.4550555340829305
 21
1144.7756289040780757
 72
1
 10
804.4550555340829305
 20
1144.7756289040780757
 11
806.0867978621275824
 21
1144.7756289040780757
 72
1
 10
806.0867978621275824
 20
1144.7756289040780757
 11
806.1075382120217228
 21
1144.8066572451887168
 72
1
 10
806.1075382120217228
 20
1144.8066572451887168
 11
806.5270858583523932
 21
1144.5724239469213899
 72
1
 10
806.5270858583523932
 20
1144.5724239469213899
 11
806.41137506448149
 21
1144.3656826563169489
 72
1
 10
806.41137506448149
 20
1144.3656826563169489
 11
806.4570894679665116
 21
1144.3119267937142922
 72
1
 10
806.4570894679665116
 20
1144.3119267937142922
 11
806.22886042127368
 21
1144.0752343162519082
 72
1
 10
806.22886042127368
 20
1144.0752343162519082
 11
805.9519352148549842
 21
1144.3502840380162979
 72
1
 10
805.9519352148549842
 20
1144.3502840380162979
 11
804.8130398203376217
 21
1144.3545117301309801
 72
1
 10
804.8130398203376217
 20
1144.3545117301309801
 11
804.8140891736970843
 21
1144.0418044290056514
 72
1
 10
804.4477906963146552
 20
1143.0805000914808716
 11
804.817311897003492
 21
1143.0814328836941058
 72
1
 10
804.817311897003492
 20
1143.0814328836941058
 11
804.8188212203093599
 21
1142.6316545385307109
 72
1
 10
804.8188212203093599
 20
1142.6316545385307109
 11
806.0676036142210705
 21
1142.6258731385587453
 72
1
 10
806.0676036142210705
 20
1142.6258731385587453
 11
806.3418274849760792
 21
1142.8891475010914291
 72
1
 10
806.3418274849760792
 20
1142.8891475010914291
 11
806.5145929068239639
 21
1142.7182499146917962
 72
1
 10
806.5145929068239639
 20
1142.7182499146917962
 11
806.3902057326482691
 21
1142.6027475386715651
 72
1
 10
806.3902057326482691
 20
1142.6027475386715651
 11
806.4824178303377948
 21
1142.4174691736084242
 72
1
 10
806.4824178303377948
 20
1142.4174691736084242
 11
806.008030819212081
 21
1142.1216195017607333
 72
1
 10
806.008030819212081
 20
1142.1216195017607333
 11
805.9794950786506433
 21
1142.1818616207235664
 72
1
 10
805.9794950786506433
 20
1142.1818616207235664
 11
804.4439552461370795
 21
1142.1855617167054788
 72
1
 10
804.4439552461370795
 20
1142.1855617167054788
 11
804.4477906963146552
 21
1143.0805000914808716
 72
1
 10
806.8304803679386623
 20
1143.3779289454150785
 11
807.0184674178107116
 21
1143.1861333891795312
 72
1
 10
807.0184674178107116
 20
1143.1861333891795312
 11
807.2967292482286439
 21
1143.4445193745675624
 72
1
 10
807.2967292482286439
 20
1143.4445193745675624
 11
807.2597282884090646
 21
1143.5185212942069484
 72
1
 10
807.2597282884090646
 20
1143.5185212942069484
 11
807.017541036908824
 21
1143.7636343372873853
 72
1
 10
807.017541036908824
 20
1143.7636343372873853
 11
806.7850205149705971
 21
1143.5260262237261486
 72
1
 10
806.7850205149705971
 20
1143.5260262237261486
 11
806.8827810102468447
 21
1143.4294877346408157
 72
1
 10
806.8827810102468447
 20
1143.4294877346408157
 11
806.8304803679386623
 21
1143.3779289454150785
 97
0
 75
0
 76
1
 52
0.0
 41
0.0589762648686874
 77
0
 78
1
 53
45.0
 43
0.0
 44
0.0
 45
-0.0883883476483184
 46
0.0883883476483185
 79
0
 98
0
  0
HATCH
  5
4D
  8
baering
 62
256
370
-1
  6
ByLayer
100
AcDbEntity
100
AcDbHatch
 10
0.0
 20
0.0
 30
0.0
210
0.0
220
0.0
230
1.0
  2
ANSI31
 70
0
 71
0
 91
1
 92
1
 93
7
 72
1
 10
806.4426962737993563
 20
1146.2359356565987127
 11
806.9463764099366472
 21
1146.2359090420479788
 72
1
 10
806.9463764099366472
 20
1146.2359090420479788
 11
806.9463764099366472
 21
1145.412507924972715
 72
1
 10
806.9463764099366472
 20
1145.412507924972715
 11
806.886001985547523
 21
1145.3223180854126895
 72
1
 10
806.886001985547523
 20
1145.3223180854126895
 11
806.8456475052278165
 21
1145.2426600123872049
 72
1
 10
806.8456475052278165
 20
1145.2426600123872049
 11
806.4210353585640405
 21
1145.5032184619476539
 72
1
 10
806.4210353585640405
 20
1145.5032184619476539
 11
806.4457071723777517
 21
1145.5489489643077832
 72
1
 10
806.4457071723777517
 20
1145.5489489643077832
 11
806.4426962737993563
 21
1146.2359356565987127
 97
0
 75
0
 76
1
 52
0.0
 41
0.0589762648686874
 77
0
 78
1
 53
45.0
 43
0.0
 44
0.0
 45
-0.0883883476483184
 46
0.0883883476483185
 79
0
 98
0
  0
HATCH
  5
4E
  8
baering
 62
256
370
-1
  6
ByLayer
100
AcDbEntity
100
AcDbHatch
 10
0.0
 20
0.0
 30
0.0
210
0.0
220
0.0
230
1.0
  2
ANSI31
 70
0
 71
0
 91
1
 92
1
 93
4
 72
1
 10
806.9463764099366472
 20
1147.3369243644565358
 11
806.437870963242176
 21
1147.3369106820650813
 72
1
 10
806.437870963242176
 20
1147.3369106820650813
 11
806.4341899609067923
 21
1148.7874545480556208
 72
1
 10
806.4341899609067923
 20
1148.7874545480556208
 11
806.9361679814329591
 21
1148.7874651739050478
 72
1
 10
806.9361679814329591
 20
1148.7874651739050478
 11
806.9463764099366472
 21
1147.3369243644565358
 97
0
 75
0
 76
1
 52
0.0
 41
0.0589762648686874
 77
0
 78
1
 53
45.0
 43
0.0
 44
0.0
 45
-0.0883883476483184
 46
0.0883883476483185
 79
0
 98
0
  0
HATCH
  5
4F
  8
baering
 62
256
370
-1
  6
ByLayer
100
AcDbEntity
100
AcDbHatch
 10
0.0
 20
0.0
 30
0.0
210
0.0
220
0.0
230
1.0
  2
ANSI31
 70
0
 71
0
 91
1
 92
1
 93
7
 72
1
 10
806.426745412499713
 20
1149.8753905097998995
 11
806.9337532488490297
 21
1149.8788723907791791
 72
1
 10
806.9337532488490297
 20
1149.8788723907791791
 11
806.940595009964909
 21
1150.8238982985899383
 72
1
 10
806.940595009964909
 20
1150.8238982985899383
 11
806.888562410218583
 21
1150.9279634980825904
 72
1
 10
806.888562410218583
 20
1150.9279634980825904
 11
806.8604114330671564
 21
1150.9851544306111464
 72
1
 10
806.8604114330671564
 20
1150.9851544306111464
 11
806.3577864378819413
 21
1150.7565193112902762
 72
1
 10
806.3577864378819413
 20
1150.7565193112902762
 11
806.4235065964859359
 21
1150.6143803636118719
 72
1
 10
806.4235065964859359
 20
1150.6143803636118719
 11
806.426745412499713
 21
1149.8753905097998995
 97
0
 75
0
 76
1
 52
0.0
 41
0.0589762648686874
 77
0
 78
1
 53
45.0
 43
0.0
 44
0.0
 45
-0.0883883476483184
 46
0.0883883476483185
 79
0
 98
0
  0
HATCH
  5
50
  8
baering
 62
256
370
-1
  6
ByLayer
100
AcDbEntity
100
AcDbHatch
 10
0.0
 20
0.0
 30
0.0
210
0.0
220
0.0
230
1.0
  2
ANSI31
 70
0
 71
0
 91
1
 92
1
 93
10
 72
1
 10
804.4482829089822644
 20
1153.3226260368696785
 11
804.4513554381009044
 21
1153.9555670353222467
 72
1
 10
804.4513554381009044
 20
1153.9555670353222467
 11
805.9461942148130902
 21
1153.9555670353222467
 72
1
 10
805.9461942148130902
 20
1153.9555670353222467
 11
805.9720847642287254
 21
1153.9977636434484793
 72
1
 10
805.9720847642287254
 20
1153.9977636434484793
 11
806.413469250120329
 21
1153.7336673647655516
 72
1
 10
806.413469250120329
 20
1153.7336673647655516
 11
806.3405529447405797
 21
1153.6093313659096111
 72
1
 10
806.3405529447405797
 20
1153.6093313659096111
 11
806.1435726822339802
 21
1153.4317242459503632
 72
1
 10
806.1435726822339802
 20
1153.4317242459503632
 11
805.9646946947228798
 21
1153.611458108999841
 72
1
 10
805.9646946947228798
 20
1153.611458108999841
 11
804.8176649403150122
 21
1153.6151582049817534
 72
1
 10
804.8176649403150122
 20
1153.6151582049817534
 11
804.8162684816536512
 21
1153.3226001154264395
 72
1
 10
804.8162684816536512
 20
1153.3226001154264395
 11
804.4482829089822644
 21
1153.3226260368696785
 97
0
 75
0
 76
1
 52
0.0
 41
0.0589762648686874
 77
0
 78
1
 53
45.0
 43
0.0
 44
0.0
 45
-0.0883883476483184
 46
0.0883883476483185
 79
0
 98
0
  0
HATCH
  5
51
  8
baering
 62
256
370
-1
  6
ByLayer
100
AcDbEntity
100
AcDbHatch
 10
0.0
 20
0.0
 30
0.0
210
0.0
220
0.0
230
1.0
  2
ANSI31
 70
0
 71
0
 91
1
 92
1
 93
12
 72
1
 10
804.4453565637151087
 20
1152.3897862412911763
 11
804.8118158682998455
 21
1152.389777617800064
 72
1
 10
804.8118158682998455
 20
1152.389777617800064
 11
804.8102647483510736
 21
1152.0648179885401987
 72
1
 10
804.8102647483510736
 20
1152.0648179885401987
 11
805.9350351646545505
 21
1152.05573269035267
 72
1
 10
805.9350351646545505
 20
1152.05573269035267
 11
806.2074007222862519
 21
1152.3208619853908203
 72
1
 10
806.2074007222862519
 20
1152.3208619853908203
 11
806.4126896913095379
 21
1152.1110551754945845
 72
1
 10
806.4126896913095379
 20
1152.1110551754945845
 11
806.3454141446936774
 21
1152.0474052612598825
 72
1
 10
806.3454141446936774
 20
1152.0474052612598825
 11
806.3393294128962907
 21
1152.0437736926426169
 72
1
 10
806.3393294128962907
 20
1152.0437736926426169
 11
806.4766251736065215
 21
1151.7648465156205475
 72
1
 10
806.4766251736065215
 20
1151.7648465156205475
 11
805.9963521546740139
 21
1151.5413126209386974
 72
1
 10
805.9963521546740139
 20
1151.5413126209386974
 11
805.9485022451825671
 21
1151.6417153559657436
 72
1
 10
805.9485022451825671
 20
1151.6417153559657436
 11
804.4452996570460073
 21
1151.6688333522756693
 72
1
 10
804.4452996570460073
 20
1151.6688333522756693
 11
804.4453565637151087
 21
1152.3897862412911763
 97
0
 75
0
 76
1
 52
0.0
 41
0.0589762648686874
 77
0
 78
1
 53
45.0
 43
0.0
 44
0.0
 45
-0.0883883476483184
 46
0.0883883476483185
 79
0
 98
0
  0
HATCH
  5
52
  8
baering
 62
256
370
-1
  6
ByLayer
100
AcDbEntity
100
AcDbHatch
 10
0.0
 20
0.0
 30
0.0
210
0.0
220
0.0
230
1.0
  2
ANSI31
 70
0
 71
0
 91
1
 92
1
 93
15
 72
1
 10
811.9993199853017813
 20
1144.435451329736452
 11
812.2489578333819509
 21
1144.4350475752580678
 72
1
 10
812.2489578333819509
 20
1144.4350475752580678
 11
812.2479201840897076
 21
1144.5510793291728078
 72
1
 10
812.2479201840897076
 20
1144.5510793291728078
 11
815.9537975660221036
 21
1144.5337351292573658
 72
1
 10
815.9537975660221036
 20
1144.5337351292573658
 11
816.4470212078898612
 21
1144.0233060115103854
 72
1
 10
816.4470212078898612
 20
1144.0233060115103854
 11
816.4470212078898612
 21
1144.0233060115103854
 72
1
 10
816.4470212078898612
 20
1144.0233060115103854
 11
816.7699814912759848
 21
1144.0239637258846415
 72
1
 10
816.7699814912759848
 20
1144.0239637258846415
 11
816.7689749620478779
 21
1144.7275276563125317
 72
1
 10
816.7689749620478779
 20
1144.7275276563125317
 11
816.4537997716421387
 21
1144.7365226818737938
 72
1
 10
816.4537997716421387
 20
1144.7365226818737938
 11
816.4523786593364321
 21
1145.48874792062702
 72
1
 10
816.4523786593364321
 20
1145.48874792062702
 11
815.9483865620038614
 21
1145.4898988365355308
 72
1
 10
815.9483865620038614
 20
1145.4898988365355308
 11
815.9484747026666582
 21
1144.7303027790219403
 72
1
 10
815.9484747026666582
 20
1144.7303027790219403
 11
812.0870390443874385
 21
1144.7428669376690777
 72
1
 10
812.0870390443874385
 20
1144.7428669376690777
 11
812.0060782756645494
 21
1144.8235568761763261
 72
1
 10
812.0060782756645494
 20
1144.8235568761763261
 11
811.8008541780288851
 21
1144.643564780418501
 72
1
 10
811.8008541780288851
 20
1144.643564780418501
 11
811.9993199853017813
 21
1144.435451329736452
 97
0
 75
0
 76
1
 52
0.0
 41
0.0589762648686874
 77
0
 78
1
 53
45.0
 43
0.0
 44
0.0
 45
-0.0883883476483184
 46
0.0883883476483185
 79
0
 98
0
  0
HATCH
  5
53
  8
baering
 62
256
370
-1
  6
ByLayer
100
AcDbEntity
100
AcDbHatch
 10
0.0
 20
0.0
 30
0.0
210
0.0
220
0.0
230
1.0
  2
ANSI31
 70
0
 71
0
 91
1
 92
1
 93
9
 72
1
 10
812.3426341920152254
 20
1142.1911334957790132
 11
812.3426347166144978
 21
1142.3824660507207227
 72
1
 10
812.3426347166144978
 20
1142.3824660507207227
 11
812.2479201840897076
 21
1142.3830543397427846
 72
1
 10
812.2479201840897076
 20
1142.3830543397427846
 11
812.2479201840897076
 21
1142.4776662904987461
 72
1
 10
812.2479201840897076
 20
1142.4776662904987461
 11
812.010421367569279
 21
1142.4776723213817604
 72
1
 10
812.010421367569279
 20
1142.4776723213817604
 11
812.0108827852453715
 21
1142.394617139686261
 72
1
 10
812.0108827852453715
 20
1142.394617139686261
 11
811.8605805072078283
 21
1142.2516212223868024
 72
1
 10
811.8605805072078283
 20
1142.2516212223868024
 11
812.0172126753034263
 21
1142.0815080176671472
 72
1
 10
812.0172126753034263
 20
1142.0815080176671472
 11
812.1554177845406457
 21
1142.1922681406729225
 72
1
 10
812.1554177845406457
 20
1142.1922681406729225
 11
812.3426341920152254
 21
1142.1911334957790132
 97
0
 75
0
 76
1
 52
0.0
 41
0.0589762648686874
 77
0
 78
1
 53
45.0
 43
0.0
 44
0.0
 45
-0.0883883476483184
 46
0.0883883476483185
 79
0
 98
0
  0
HATCH
  5
54
  8
baering
 62
256
370
-1
  6
ByLayer
100
AcDbEntity
100
AcDbHatch
 10
0.0
 20
0.0
 30
0.0
210
0.0
220
0.0
230
1.0
  2
ANSI31
 70
0
 71
0
 91
1
 92
1
 93
4
 72
1
 10
816.4479012106543223
 20
1147.1123782004729037
 11
815.9482035590732494
 21
1147.1123782004729037
 72
1
 10
815.9482035590732494
 20
1147.1123782004729037
 11
815.9518264303708293
 21
1148.9610204747943953
 72
1
 10
815.9518264303708293
 20
1148.9610204747943953
 11
816.4458427546306893
 21
1148.9672669529888935
 72
1
 10
816.4458427546306893
 20
1148.9672669529888935
 11
816.4479012106543223
 21
1147.1123782004729037
 97
0
 75
0
 76
1
 52
0.0
 41
0.0589762648686874
 77
0
 78
1
 53
45.0
 43
0.0
 44
0.0
 45
-0.0883883476483184
 46
0.0883883476483185
 79
0
 98
0
  0
HATCH
  5
55
  8
baering
 62
256
370
-1
  6
ByLayer
100
AcDbEntity
100
AcDbHatch
 10
0.0
 20
0.0
 30
0.0
210
0.0
220
0.0
230
1.0
  2
ANSI31
 70
0
 71
0
 91
1
 92
1
 93
15
 72
1
 10
815.9497359368912157
 20
1150.6377673275867437
 11
816.4379357701342315
 21
1150.6377673275867437
 72
1
 10
816.4379357701342315
 20
1150.6377673275867437
 11
816.4359663236714368
 21
1150.6377673275867437
 72
1
 10
816.4359663236714368
 20
1150.6377673275867437
 11
816.4367568534576094
 21
1151.4135753175701211
 72
1
 10
816.4367568534576094
 20
1151.4135753175701211
 11
816.7763751540118164
 21
1151.4025008077694565
 72
1
 10
816.7763751540118164
 20
1151.4025008077694565
 11
816.7752595692203386
 21
1152.1990283488814839
 72
1
 10
816.7752595692203386
 20
1152.1990283488814839
 11
816.4225141069298388
 21
1152.1990485600290413
 72
1
 10
816.4225141069298388
 20
1152.1990485600290413
 11
816.4220909637390378
 21
1152.1131504923048396
 72
1
 10
816.4220909637390378
 20
1152.1131504923048396
 11
815.9306719661349234
 21
1151.6275128946724635
 72
1
 10
815.9306719661349234
 20
1151.6275128946724635
 11
812.2086654711383744
 21
1151.6217423419670922
 72
1
 10
812.2086654711383744
 20
1151.6217423419670922
 11
812.01565599530079
 21
1151.7994214071015904
 72
1
 10
812.01565599530079
 20
1151.7994214071015904
 11
811.8373396914146269
 21
1151.6283918192641522
 72
1
 10
811.8373396914146269
 20
1151.6283918192641522
 11
812.0399324702161721
 21
1151.4160462657901007
 72
1
 10
812.0399324702161721
 20
1151.4160462657901007
 11
812.0804059876646761
 21
1151.4514424559549752
 72
1
 10
812.0804059876646761
 20
1151.4514424559549752
 11
815.9487719463995745
 21
1151.4109665930695883
 72
1
 10
815.9487719463995745
 20
1151.4109665930695883
 11
815.9497359368912157
 21
1150.6377673275867437
 97
0
 75
0
 76
1
 52
0.0
 41
0.0589762648686874
 77
0
 78
1
 53
45.0
 43
0.0
 44
0.0
 45
-0.0883883476483184
 46
0.0883883476483185
 79
0
 98
0
  0
HATCH
  5
56
  8
baering
 62
256
370
-1
  6
ByLayer
100
AcDbEntity
100
AcDbHatch
 10
0.0
 20
0.0
 30
0.0
210
0.0
220
0.0
230
1.0
  2
ANSI31
 70
0
 71
0
 91
1
 92
1
 93
10
 72
1
 10
811.1032029896704216
 20
1147.0667336307549249
 11
811.3489178958864159
 21
1147.0667336307549249
 72
1
 10
811.3489178958864159
 20
1147.0667336307549249
 11
811.355512002808382
 21
1147.0667336307549249
 72
1
 10
811.355512002808382
 20
1147.0667336307549249
 11
811.3561217939084145
 21
1147.0667336307549249
 72
1
 10
811.3561217939084145
 20
1147.0667336307549249
 11
811.3440828460988996
 21
1149.2773616490267159
 72
1
 10
811.3440828460988996
 20
1149.2773616490267159
 11
811.1147657896140117
 21
1149.2745819076171756
 72
1
 10
811.1147657896140117
 20
1149.2745819076171756
 11
811.1147657896140117
 21
1148.6038407094135891
 72
1
 10
811.1147657896140117
 20
1148.6038407094135891
 11
810.8314771909952015
 21
1148.6096221093855547
 72
1
 10
810.8314771909952015
 20
1148.6096221093855547
 11
810.8314771909952015
 21
1147.6152213142336223
 72
1
 10
810.8314771909952015
 20
1147.6152213142336223
 11
811.1032029896704216
 21
1147.6152213142336223
 72
1
 10
811.1032029896704216
 20
1147.6152213142336223
 11
811.1032029896704216
 21
1147.0667336307549249
 97
0
 75
0
 76
1
 52
0.0
 41
0.0589762648686874
 77
0
 78
1
 53
45.0
 43
0.0
 44
0.0
 45
-0.0883883476483184
 46
0.0883883476483185
 79
0
 98
0
  0
HATCH
  5
57
  8
baering
 62
256
370
-1
  6
ByLayer
100
AcDbEntity
100
AcDbHatch
 10
0.0
 20
0.0
 30
0.0
210
0.0
220
0.0
230
1.0
  2
ANSI31
 70
0
 71
0
 91
1
 92
1
 93
4
 72
1
 10
812.0065432090037802
 20
1152.9776032980264517
 11
812.2087678449317991
 21
1152.9776138724776047
 72
1
 10
812.2087678449317991
 20
1152.9776138724776047
 11
812.2069964896168131
 21
1152.6392850073054888
 72
1
 10
812.2069964896168131
 20
1152.6392850073054888
 11
812.0157729862364704
 21
1152.6392733863469857
 72
1
 10
812.0157729862364704
 20
1152.6392733863469857
 11
812.0065432090037802
 21
1152.9776032980264517
 97
0
 75
0
 76
1
 52
0.0
 41
0.0589762648686874
 77
0
 78
1
 53
45.0
 43
0.0
 44
0.0
 45
-0.0883883476483184
 46
0.0883883476483185
 79
0
 98
0
  0
HATCH
  5
58
  8
baering
 62
256
370
-1
  6
ByLayer
100
AcDbEntity
100
AcDbHatch
 10
0.0
 20
0.0
 30
0.0
210
0.0
220
0.0
230
1.0
  2
ANSI31
 70
0
 71
0
 91
1
 92
1
 93
4
 72
1
 10
809.6408002209248025
 20
1152.3386250912049036
 11
810.0856650450043617
 21
1152.3386250912049036
 72
1
 10
810.0856650450043617
 20
1152.3386250912049036
 11
810.085744160015679
 21
1153.2490403694046108
 72
1
 10
810.085744160015679
 20
1153.2490403694046108
 11
809.6388900048096957
 21
1153.2488487027676456
 72
1
 10
809.6388900048096957
 20
1153.2488487027676456
 11
809.6408002209248025
 21
1152.3386250912049036
 97
0
 75
0
 76
1
 52
0.0
 41
0.0589762648686874
 77
0
 78
1
 53
45.0
 43
0.0
 44
0.0
 45
-0.0883883476483184
 46
0.0883883476483185
 79
0
 98
0
  0
HATCH
  5
59
  8
baering
 62
256
370
-1
  6
ByLayer
100
AcDbEntity
100
AcDbHatch
 10
0.0
 20
0.0
 30
0.0
210
0.0
220
0.0
230
1.0
  2
ANSI31
 70
0
 71
0
 91
1
 92
1
 93
7
 72
1
 10
806.3414739232566717
 20
1154.7102644985532152
 11
806.8187519164882815
 21
1154.4106202834436772
 72
1
 10
806.8187519164882815
 20
1154.4106202834436772
 11
806.9482577099342961
 21
1154.6028871407788756
 72
1
 10
806.9482577099342961
 20
1154.6028871407788756
 11
806.9313750186988727
 21
1154.7212469418739147
 72
1
 10
806.9313750186988727
 20
1154.7212469418739147
 11
806.9283763379104357
 21
1155.6026239117431942
 72
1
 10
806.9283763379104357
 20
1155.6026239117431942
 11
806.4131181383033891
 21
1155.6155588441297368
 72
1
 10
806.4131181383033891
 20
1155.6155588441297368
 11
806.4161064045219973
 21
1154.8435900709928319
 72
1
 10
806.4161064045219973
 20
1154.8435900709928319
 11
806.3414739232566717
 21
1154.7102644985532152
 97
0
 75
0
 76
1
 52
0.0
 41
0.0589762648686874
 77
0
 78
1
 53
45.0
 43
0.0
 44
0.0
 45
-0.0883883476483184
 46
0.0883883476483185
 79
0
 98
0
  0
HATCH
  5
5A
  8
baering
 62
256
370
-1
  6
ByLayer
100
AcDbEntity
100
AcDbHatch
 10
0.0
 20
0.0
 30
0.0
210
0.0
220
0.0
230
1.0
  2
ANSI31
 70
0
 71
0
 91
1
 92
1
 93
7
 72
1
 10
807.08042393095036
 20
1152.7978024787803406
 11
807.0673232973471158
 21
1152.88993939251759
 72
1
 10
807.0673232973471158
 20
1152.88993939251759
 11
806.8679261176694126
 21
1153.0873122353455074
 72
1
 10
806.8679261176694126
 20
1153.0873122353455074
 11
806.668951756295769
 21
1152.9038313964144891
 72
1
 10
806.668951756295769
 20
1152.9038313964144891
 11
806.7380147549525873
 21
1152.8344379527882211
 72
1
 10
806.7380147549525873
 20
1152.8344379527882211
 11
806.6700984942916648
 21
1152.7687024894878505
 72
1
 10
806.6700984942916648
 20
1152.7687024894878505
 11
806.8694243100135282
 21
1152.5831202969875449
 72
1
 10
806.8694243100135282
 20
1152.5831202969875449
 11
807.08042393095036
 21
1152.7978024787803406
 97
0
 75
0
 76
1
 52
0.0
 41
0.0589762648686874
 77
0
 78
1
 53
45.0
 43
0.0
 44
0.0
 45
-0.0883883476483184
 46
0.0883883476483185
 79
0
 98
0
  0
HATCH
  5
5B
  8
baering
 62
256
370
-1
  6
ByLayer
100
AcDbEntity
100
AcDbHatch
 10
0.0
 20
0.0
 30
0.0
210
0.0
220
0.0
230
1.0
  2
ANSI31
 70
0
 71
0
 91
1
 92
1
 93
14
 72
1
 10
806.4086984947005021
 20
1156.757300108225536
 11
806.944937586795163
 21
1156.7594169402784701
 72
1
 10
806.944937586795163
 20
1156.7594169402784701
 11
806.9498452499198038
 21
1157.3522551467619905
 72
1
 10
806.9498452499198038
 20
1157.3522551467619905
 11
810.7008175516323263
 21
1157.343004906806982
 72
1
 10
810.7008175516323263
 20
1157.343004906806982
 11
810.7123757806305093
 21
1157.0516223482277383
 72
1
 10
810.7123757806305093
 20
1157.0516223482277383
 11
811.0800773897833551
 21
1157.0516223482277383
 72
1
 10
811.0800773897833551
 20
1157.0516223482277383
 11
811.0800773897833551
 21
1156.4307804327979738
 72
1
 10
811.0800773897833551
 20
1156.4307804327979738
 11
811.330689035703017
 21
1156.4240746804816808
 72
1
 10
811.330689035703017
 20
1156.4240746804816808
 11
811.3286775885713951
 21
1157.3453174667959047
 72
1
 10
811.3286775885713951
 20
1157.3453174667959047
 11
815.9306719661349234
 21
1157.3221918669087245
 72
1
 10
815.9306719661349234
 20
1157.3221918669087245
 11
815.9352064219749536
 21
1156.4576222867374327
 72
1
 10
815.9352064219749536
 20
1156.4576222867374327
 11
816.4185456218308445
 21
1156.4508322491117269
 72
1
 10
816.4185456218308445
 20
1156.4508322491117269
 11
816.4137657477796211
 21
1157.6075617695173605
 72
1
 10
816.4137657477796211
 20
1157.6075617695173605
 11
806.4050302024414805
 21
1157.7049422751454131
 72
1
 10
806.4050302024414805
 20
1157.7049422751454131
 11
806.4086984947005021
 21
1156.757300108225536
 97
0
 75
0
 76
1
 52
0.0
 41
0.0589762648686874
 77
0
 78
1
 53
45.0
 43
0.0
 44
0.0
 45
-0.0883883476483184
 46
0.0883883476483185
 79
0
 98
0
  0
HATCH
  5
5C
  8
baering
 62
256
370
-1
  6
ByLayer
100
AcDbEntity
100
AcDbHatch
 10
0.0
 20
0.0
 30
0.0
210
0.0
220
0.0
230
1.0
  2
ANSI31
 70
0
 71
0
 91
1
 92
1
 93
10
 72
1
 10
816.7736965974503391
 20
1153.3149901926217353
 11
816.4329291475123682
 21
1153.28515629450294
 72
1
 10
816.4329291475123682
 20
1153.28515629450294
 11
815.8731347484653043
 21
1153.8132093622750745
 72
1
 10
815.8731347484653043
 20
1153.8132093622750745
 11
813.131533294187193
 21
1153.8287709725070727
 72
1
 10
813.131533294187193
 20
1153.8287709725070727
 11
813.1260430928089136
 21
1154.0606801369197001
 72
1
 10
813.1260430928089136
 20
1154.0606801369197001
 11
815.9480161660503654
 21
1154.0152310830312672
 72
1
 10
815.9480161660503654
 20
1154.0152310830312672
 11
815.943741858696967
 21
1154.8301990184058923
 72
1
 10
815.943741858696967
 20
1154.8301990184058923
 11
816.4252431644810031
 21
1154.830026927779727
 72
1
 10
816.4252431644810031
 20
1154.830026927779727
 11
816.4280732808681478
 21
1154.0255451822781652
 72
1
 10
816.4280732808681478
 20
1154.0255451822781652
 11
816.7726750580297903
 21
1154.0443693388892825
 72
1
 10
816.7726750580297903
 20
1154.0443693388892825
 11
816.7736965974503391
 21
1153.3149901926217353
 97
0
 75
0
 76
1
 52
0.0
 41
0.0589762648686874
 77
0
 78
1
 53
45.0
 43
0.0
 44
0.0
 45
-0.0883883476483184
 46
0.0883883476483185
 79
0
 98
0
  0
HATCH
  5
5D
  8
baering
 62
256
370
-1
  6
ByLayer
100
AcDbEntity
100
AcDbHatch
 10
0.0
 20
0.0
 30
0.0
210
0.0
220
0.0
230
1.0
  2
ANSI31
 70
0
 71
0
 91
1
 92
1
 93
9
 72
1
 10
812.0036054528619616
 20
1153.7149800896177112
 11
812.2126285508549017
 21
1153.7150087037907724
 72
1
 10
812.2126285508549017
 20
1153.7150087037907724
 11
812.2137858222545219
 21
1153.8302254059017287
 72
1
 10
812.2137858222545219
 20
1153.8302254059017287
 11
812.2979754541187276
 21
1153.8300919833470743
 72
1
 10
812.2979754541187276
 20
1153.8300919833470743
 11
812.3008865754580938
 21
1154.0739696269502019
 72
1
 10
812.3008865754580938
 20
1154.0739696269502019
 11
811.9993199853017813
 21
1154.078826482721297
 72
1
 10
811.9993199853017813
 20
1154.078826482721297
 11
811.9656423872348796
 21
1154.1101612913573717
 72
1
 10
811.9656423872348796
 20
1154.1101612913573717
 11
811.8371285475449213
 21
1153.9597404314015421
 72
1
 10
811.8371285475449213
 20
1153.9597404314015421
 11
812.0032513372825633
 21
1153.8038631000617897
 72
1
 10
812.0032513372825633
 20
1153.8038631000617897
 11
812.0036054528619616
 21
1153.7149800896177112
 97
0
 75
0
 76
1
 52
0.0
 41
0.0589762648686874
 77
0
 78
1
 53
45.0
 43
0.0
 44
0.0
 45
-0.0883883476483184
 46
0.0883883476483185
 79
0
 98
0
  0
HATCH
  5
5E
  8
baering
 62
256
370
-1
  6
ByLayer
100
AcDbEntity
100
AcDbHatch
 10
0.0
 20
0.0
 30
0.0
210
0.0
220
0.0
230
1.0
  2
ANSI31
 70
0
 71
0
 91
1
 92
1
 93
9
 72
1
 10
811.1147657896140117
 20
1150.1298048992568965
 11
811.3471915241938177
 21
1150.1308239712786872
 72
1
 10
811.3471915241938177
 20
1150.1308239712786872
 11
811.3496740434550247
 21
1150.8123794713840198
 72
1
 10
811.3496740434550247
 20
1150.8123794713840198
 11
811.4486607391572761
 21
1150.8989484707133215
 72
1
 10
811.4486607391572761
 20
1150.8989484707133215
 11
811.2632891105471344
 21
1151.0767068454435957
 72
1
 10
811.2632891105471344
 20
1151.0767068454435957
 11
811.1205471895858636
 21
1150.9395262980262942
 72
1
 10
811.1205471895858636
 20
1150.9395262980262942
 11
810.9248804725507398
 21
1150.9351298443989435
 72
1
 10
810.9248804725507398
 20
1150.9351298443989435
 11
810.924961515561904
 21
1150.8073602223537364
 72
1
 10
810.924961515561904
 20
1150.8073602223537364
 11
811.1147657896140117
 21
1150.8065540986744963
 72
1
 10
811.1147657896140117
 20
1150.8065540986744963
 11
811.1147657896140117
 21
1150.1298048992568965
 97
0
 75
0
 76
1
 52
0.0
 41
0.0589762648686874
 77
0
 78
1
 53
45.0
 43
0.0
 44
0.0
 45
-0.0883883476483184
 46
0.0883883476483185
 79
0
 98
0
  0
HATCH
  5
5F
  8
baering
 62
256
370
-1
  6
ByLayer
100
AcDbEntity
100
AcDbHatch
 10
0.0
 20
0.0
 30
0.0
210
0.0
220
0.0
230
1.0
  2
ANSI31
 70
0
 71
0
 91
1
 92
1
 93
9
 72
1
 10
811.275985925165628
 20
1145.1939474622402031
 11
811.4803585340599739
 21
1145.3737064618524073
 72
1
 10
811.4803585340599739
 20
1145.3737064618524073
 11
811.3388778461252286
 21
1145.5208211430372103
 72
1
 10
811.3388778461252286
 20
1145.5208211430372103
 11
811.3425129442969137
 21
1146.0795370700363947
 72
1
 10
811.3425129442969137
 20
1146.0795370700363947
 11
811.1032029896704216
 21
1146.076716888499277
 72
1
 10
811.1032029896704216
 20
1146.076716888499277
 11
811.099004293427015
 21
1145.4182834853113491
 72
1
 10
811.099004293427015
 20
1145.4182834853113491
 11
810.9589378849013883
 21
1145.4180886780673063
 72
1
 10
810.9589378849013883
 20
1145.4180886780673063
 11
810.9578242032691833
 21
1145.3061463058529625
 72
1
 10
810.9578242032691833
 20
1145.3061463058529625
 11
811.1667983893605651
 21
1145.3084427254802904
 72
1
 10
811.1667983893605651
 20
1145.3084427254802904
 11
811.275985925165628
 21
1145.1939474622402031
 97
0
 75
0
 76
1
 52
0.0
 41
0.0589762648686874
 77
0
 78
1
 53
45.0
 43
0.0
 44
0.0
 45
-0.0883883476483184
 46
0.0883883476483185
 79
0
 98
0
  0
HATCH
  5
60
  8
baering
 62
256
370
-1
  6
ByLayer
100
AcDbEntity
100
AcDbHatch
 10
0.0
 20
0.0
 30
0.0
210
0.0
220
0.0
230
1.0
  2
ANSI31
 70
0
 71
0
 91
1
 92
1
 93
9
 72
1
 10
811.3722095015104969
 20
1154.6623118893792252
 11
811.2305008004386764
 21
1154.5289550134880301
 72
1
 10
811.2305008004386764
 20
1154.5289550134880301
 11
811.1633295493775222
 21
1154.5919835442193744
 72
1
 10
811.1633295493775222
 20
1154.5919835442193744
 11
810.9153714380277052
 21
1154.5894447239668352
 72
1
 10
810.9153714380277052
 20
1154.5894447239668352
 11
810.9168522322653416
 21
1154.7382876382557697
 72
1
 10
810.9168522322653416
 20
1154.7382876382557697
 11
811.0800773897833551
 21
1154.7390623595022134
 72
1
 10
811.0800773897833551
 20
1154.7390623595022134
 11
811.0800773897833551
 21
1155.6600469730949499
 72
1
 10
811.0800773897833551
 20
1155.6600469730949499
 11
811.332371129955618
 21
1155.6536755128095137
 72
1
 10
811.332371129955618
 20
1155.6536755128095137
 11
811.3344589885431333
 21
1154.6974362797052436
 72
1
 10
811.3344589885431333
 20
1154.6974362797052436
 11
811.3722095015104969
 21
1154.6623118893792252
 97
0
 75
0
 76
1
 52
0.0
 41
0.0589762648686874
 77
0
 78
1
 53
45.0
 43
0.0
 44
0.0
 45
-0.0883883476483184
 46
0.0883883476483185
 79
0
 98
0
  0
HATCH
  5
61
  8
baering
 62
256
370
-1
  6
ByLayer
100
AcDbEntity
100
AcDbHatch
 10
0.0
 20
0.0
 30
0.0
210
0.0
220
0.0
230
1.0
  2
ANSI31
 70
0
 71
0
 91
1
 92
1
 93
4
 72
1
 10
812.0060143957230139
 20
1143.27092725370062
 11
812.2479201840897076
 21
1143.2700939281955925
 72
1
 10
812.2479201840897076
 20
1143.2700939281955925
 11
812.2479201840897076
 21
1143.5986087429400868
 72
1
 10
812.2479201840897076
 20
1143.5986087429400868
 11
812.001986476730508
 21
1143.5986287254745548
 72
1
 10
812.001986476730508
 20
1143.5986287254745548
 11
812.0060143957230139
 21
1143.27092725370062
 97
0
 75
0
 76
1
 52
0.0
 41
0.0589762648686874
 77
0
 78
1
 53
45.0
 43
0.0
 44
0.0
 45
-0.0883883476483184
 46
0.0883883476483185
 79
0
 98
0
  0
HATCH
  5
62
  8
fyld
 62
256
370
-1
  6
ByLayer
100
AcDbEntity
100
AcDbHatch
 10
0.0
 20
0.0
 30
0.0
210
0.0
220
0.0
230
1.0
  2
ar-brstd
 70
0
 71
0
 91
1
 92
1
 93
4
 72
1
 10
811.0800773897833551
 20
1155.6553652559173315
 11
811.0800773897833551
 21
1156.4206733683461152
 72
1
 10
811.0800773897833551
 20
1156.4206733683461152
 11
811.3306964526259435
 21
1156.4206777298234101
 72
1
 10
811.3306964526259435
 20
1156.4206777298234101
 11
811.3323628425163179
 21
1155.6574711600146657
 72
1
 10
811.3323628425163179
 20
1155.6574711600146657
 11
811.0800773897833551
 21
1155.6553652559173315
 97
0
 75
0
 76
1
 52
0.0
 41
0.002527554208658
 77
0
 78
1
 53
45.0
 43
0.0
 44
0.0
 45
-0.0883883476483184
 46
0.0883883476483185
 79
0
 98
0
  0
HATCH
  5
63
  8
fyld
 62
256
370
-1
  6
ByLayer
100
AcDbEntity
100
AcDbHatch
 10
0.0
 20
0.0
 30
0.0
210
0.0
220
0.0
230
1.0
  2
ansi31
 70
0
 71
0
 91
1
 92
1
 93
10
 72
1
 10
815.9753739111531559
 20
1142.3640142935330459
 11
816.450975361415658
 21
1142.8277699397376637
 72
1
 10
816.450975361415658
 20
1142.8277699397376637
 11
816.7780408760160071
 21
1142.8277699397376637
 72
1
 10
816.7780408760160071
 20
1142.8277699397376637
 11
816.7790518976994463
 21
1142.141159838955673
 72
1
 10
816.7790518976994463
 20
1142.141159838955673
 11
816.4692580035249421
 21
1142.141159838955673
 72
1
 10
816.4692580035249421
 20
1142.141159838955673
 11
816.4688367444900905
 21
1141.2697602499786171
 72
1
 10
816.4688367444900905
 20
1141.2697602499786171
 11
815.9742786376626782
 21
1141.2695243449193185
 72
1
 10
815.9742786376626782
 20
1141.2695243449193185
 11
815.9711613208053222
 21
1142.1691398640455191
 72
1
 10
815.9711613208053222
 20
1142.1691398640455191
 11
813.1738328262765663
 21
1142.1860997527855943
 72
1
 10
813.1738328262765663
 20
1142.1860997527855943
 11
813.1738328262765663
 21
1142.3773008034897884
 72
1
 10
813.1738328262765663
 20
1142.3773008034897884
 11
815.9753739111531559
 21
1142.3640142935330459
 97
0
 75
0
 76
1
 52
0.0
 41
0.0589762648686874
 77
0
 78
1
 53
45.0
 43
0.0
 44
0.0
 45
-0.0883883476483184
 46
0.0883883476483185
 79
0
 98
0
  0
LWPOLYLINE
  5
64
  8
trapper
 62
256
370
-1
  6
ByLayer
100
AcDbEntity
100
AcDbPolyline
 90
7
 70
0
 10
810.8314771909952015
 20
1148.1471101116403588
 10
810.8314771909952015
 20
1148.6096221093855547
 10
811.1147657896140117
 20
1148.6038407094135891
 10
811.1147657896140117
 20
1150.8065540986744963
 10
806.940595009964909
 20
1150.8238982985899383
 10
806.9348136099930571
 20
1148.1644543115558008
 10
810.8314771909952015
 20
1148.152891511612097
  0
LWPOLYLINE
  5
65
  8
trapper
 62
256
370
-1
  6
ByLayer
100
AcDbEntity
100
AcDbPolyline
 90
2
 70
0
 10
811.1032029896704216
 20
1145.4182893249444533
 10
811.1032029896704216
 20
1145.4182893249444533
  0
LWPOLYLINE
  5
66
  8
trapper
 62
256
370
-1
  6
ByLayer
100
AcDbEntity
100
AcDbPolyline
 90
6
 70
0
 10
805.931393830885213
 20
1152.0537177005944613
 10
806.7380147549525873
 20
1152.8344379527882211
 10
805.9646946947228798
 20
1153.611458108999841
 10
804.8176649403150122
 20
1153.6151582049817534
 10
804.8102647483510736
 20
1152.0648179885401987
 10
805.931393830885213
 20
1152.0537177005944613
  0
LWPOLYLINE
  5
67
  8
trapper
 62
256
370
-1
  6
ByLayer
100
AcDbEntity
100
AcDbPolyline
 90
6
 70
0
 10
806.0676036142210705
 20
1142.6258731385587453
 10
806.8827810102468447
 20
1143.4294877346408157
 10
805.9577570147566803
 20
1144.3429489301875037
 10
804.8130398203376217
 20
1144.3545117301309801
 10
804.8188212203093599
 20
1142.6316545385307109
 10
806.0676036142210705
 20
1142.6258731385587453
  0
LWPOLYLINE
  5
68
  8
trapper
 62
256
370
-1
  6
ByLayer
100
AcDbEntity
100
AcDbPolyline
 90
6
 70
0
 10
811.9993199853017813
 20
1154.078826482721297
 10
811.3344589885431333
 20
1154.6974362797052436
 10
811.3286775885713951
 20
1157.3453174667959047
 10
815.9306719661349234
 20
1157.3221918669087245
 10
815.9480161660503654
 20
1154.0152310830312672
 10
811.9993199853017813
 20
1154.078826482721297
  0
LWPOLYLINE
  5
69
  8
trapper
 62
256
370
-1
  6
ByLayer
100
AcDbEntity
100
AcDbPolyline
 90
7
 70
0
 10
812.2479201840897076
 20
1142.3830543397427846
 10
812.2479201840897076
 20
1144.5510793291728078
 10
815.9537975660221036
 20
1144.5337351292573658
 10
816.4509979635980699
 20
1144.0191905317658438
 10
816.4509979635980699
 20
1142.8224407376005729
 10
815.9711417659375456
 20
1142.359928739855377
 10
812.2479201840897076
 20
1142.3830543397427846
  0
LWPOLYLINE
  5
6A
  8
trapper
 62
256
370
-1
  6
ByLayer
100
AcDbEntity
100
AcDbPolyline
 90
7
 70
0
 10
812.2016689843152335
 20
1151.6217314947004979
 10
812.2132317842588236
 20
1153.8302262839333707
 10
815.8612951664731554
 20
1153.8244448839616325
 10
816.4278723637108897
 20
1153.2867746865829304
 10
816.4220909637390378
 20
1152.1131504923048396
 10
815.9306719661349234
 20
1151.6275128946724635
 10
812.2016689843152335
 20
1151.6217314947004979
  0
LWPOLYLINE
  5
6B
  8
trapper
 62
256
370
-1
  6
ByLayer
100
AcDbEntity
100
AcDbPolyline
 90
25
 70
0
 10
816.46926718750899
 20
1138.4891658307269608
 10
806.4087062125581724
 20
1138.4965660226907858
 10
806.4124063085400849
 20
1141.2679379131793667
 10
805.9794950786506433
 20
1142.1818616207235664
 10
804.4439552461370795
 20
1142.1855617167054788
 10
804.4550555340829305
 20
1144.7756289040780757
 10
806.0867978621275824
 20
1144.7756289040780757
 10
806.4457071723777517
 20
1145.5489489643077832
 10
806.4235065964859359
 20
1150.6143803636118719
 10
805.9461942148130902
 20
1151.6467071425788617
 10
804.4402551501550533
 20
1151.6689077184705639
 10
804.4513554381009044
 20
1153.9555670353222467
 10
805.9461942148130902
 20
1153.9555670353222467
 10
806.4161064045219973
 20
1154.8435900709928319
 10
806.4050061165761463
 20
1157.7111644570122735
 10
816.4137657477796211
 20
1157.6075617695173605
 10
816.4285661317074982
 20
1154.0258688589794929
 10
816.7726750580297903
 20
1154.0443693388892825
 10
816.7763751540118164
 20
1151.4025008077694565
 10
816.4359663236714368
 20
1151.4136010957154213
 10
816.4544668035812265
 20
1144.7349278482763566
 10
816.7689749620478779
 20
1144.7275276563125317
 10
816.7726750580297903
 20
1142.1411605649220746
 10
816.46926718750899
 20
1142.1411605649220746
 10
816.4676038346844962
 20
1138.4745031514116818
  0
LWPOLYLINE
  5
6C
  8
trapper
 62
256
370
-1
  6
ByLayer
100
AcDbEntity
100
AcDbPolyline
 90
11
 70
0
 10
811.3450501820360614
 20
1141.0362940210980014
 10
814.9478339709265811
 20
1141.0012997464793898
 10
814.936271170982991
 20
1140.0589315510737833
 10
814.7975175716594549
 20
1139.9895547514120153
 10
812.947469580679126
 20
1139.9664291515246077
 10
812.8549671811301778
 20
1140.0994013508764056
 10
812.7104321818347898
 20
1140.1398711506790278
 10
812.5716785825112538
 20
1140.0994013508764056
 10
812.5716785825112538
 20
1138.931558556570053
 10
815.9133277662194814
 20
1138.931558556570053
 10
815.9133277662194814
 20
1141.2614627452107925
  0
LWPOLYLINE
  5
6D
  8
trapper
 62
256
370
-1
  6
ByLayer
100
AcDbEntity
100
AcDbPolyline
 90
9
 70
0
 10
811.3441297283090989
 20
1141.0936405374316109
 10
814.9998665706729071
 20
1141.093802146028338
 10
814.9998665706729071
 20
1140.0762757509892253
 10
814.9073641711239588
 20
1139.9143965517782817
 10
812.791371781440148
 20
1139.9143965517782817
 10
812.756683381609264
 20
1139.9548663515811313
 10
812.774027581524706
 20
1140.0011175513554917
 10
812.8954369809328
 20
1139.9664291515246077
 10
812.947469580679126
 20
1139.9779919514683115
  0
LINE
  5
6E
100
AcDbEntity
100
AcDbLine
  8
trapper
 62
256
370
-1
  6
ByLayer
 10
812.8665299810737679
 20
1139.9143965517782817
 30
0.0
 11
812.8549671811301778
 21
1138.9257771565983148
 31
0.0
  0
LINE
  5
6F
100
AcDbEntity
100
AcDbLine
  8
trapper
 62
256
370
-1
  6
ByLayer
 10
813.1035673799181041
 20
1139.9028337518348053
 30
0.0
 11
813.0977859799463658
 21
1138.931558556570053
 31
0.0
  0
LINE
  5
70
100
AcDbEntity
100
AcDbLine
  8
trapper
 62
256
370
-1
  6
ByLayer
 10
813.3232605788469982
 20
1139.9028337518348053
 30
0.0
 11
813.3290419788188501
 21
1138.9373399565417913
 31
0.0
  0
LINE
  5
71
100
AcDbEntity
100
AcDbLine
  8
trapper
 62
256
370
-1
  6
ByLayer
 10
813.6354561773249543
 20
1139.9086151518065435
 30
0.0
 11
813.6181119774095123
 21
1138.931558556570053
 31
0.0
  0
LINE
  5
72
100
AcDbEntity
100
AcDbLine
  8
trapper
 62
256
370
-1
  6
ByLayer
 10
813.8724935761692905
 20
1139.9086151518065435
 30
0.0
 11
813.8551493762538485
 21
1138.931558556570053
 31
0.0
  0
LINE
  5
73
100
AcDbEntity
100
AcDbLine
  8
trapper
 62
256
370
-1
  6
ByLayer
 10
814.0806239751545945
 20
1139.9143965517782817
 30
0.0
 11
814.0864053751264464
 21
1138.931558556570053
 31
0.0
  0
LINE
  5
74
100
AcDbEntity
100
AcDbLine
  8
trapper
 62
256
370
-1
  6
ByLayer
 10
814.3176613739989307
 20
1139.9086151518065435
 30
0.0
 11
814.4217265734915827
 21
1138.931558556570053
 31
0.0
  0
LINE
  5
75
100
AcDbEntity
100
AcDbLine
  8
trapper
 62
256
370
-1
  6
ByLayer
 10
814.5084475730687927
 20
1139.9086151518065435
 30
0.0
 11
814.6992337721386548
 21
1138.931558556570053
 31
0.0
  0
LINE
  5
76
100
AcDbEntity
100
AcDbLine
  8
trapper
 62
256
370
-1
  6
ByLayer
 10
814.6414197724204769
 20
1139.9086151518065435
 30
0.0
 11
814.9651781708420231
 21
1138.931558556570053
 31
0.0
  0
LINE
  5
77
100
AcDbEntity
100
AcDbLine
  8
trapper
 62
256
370
-1
  6
ByLayer
 10
815.3062807691790113
 20
1138.931558556570053
 30
0.0
 11
814.8090803716031587
 21
1139.9086151518065435
 31
0.0
  0
LINE
  5
78
100
AcDbEntity
100
AcDbLine
  8
trapper
 62
256
370
-1
  6
ByLayer
 10
814.9073641711239588
 20
1139.9143965517782817
 30
0.0
 11
815.7861369668395355
 21
1138.931558556570053
 31
0.0
  0
LINE
  5
79
100
AcDbEntity
100
AcDbLine
  8
trapper
 62
256
370
-1
  6
ByLayer
 10
814.936271170982991
 20
1139.9433035516374275
 30
0.0
 11
815.9191091661913333
 21
1139.4807915538922316
 31
0.0
  0
LINE
  5
7A
100
AcDbEntity
100
AcDbLine
  8
trapper
 62
256
370
-1
  6
ByLayer
 10
815.0114293706166109
 20
1140.0762757509892253
 30
0.0
 11
815.9133277662194814
 21
1139.8912709518911015
 31
0.0
  0
LINE
  5
7B
100
AcDbEntity
100
AcDbLine
  8
trapper
 62
256
370
-1
  6
ByLayer
 10
815.005647970644759
 20
1140.284406149974302
 30
0.0
 11
815.9191091661913333
 21
1140.2265921502562378
 31
0.0
  0
LINE
  5
7C
100
AcDbEntity
100
AcDbLine
  8
trapper
 62
256
370
-1
  6
ByLayer
 10
814.9998665706729071
 20
1140.5619133486213741
 30
0.0
 11
815.9133277662194814
 21
1140.5676947485933397
 31
0.0
  0
LINE
  5
7D
100
AcDbEntity
100
AcDbLine
  8
trapper
 62
256
370
-1
  6
ByLayer
 10
815.0518991704192331
 20
1143.4526133345282233
 30
0.0
 11
813.2596651791570821
 21
1143.4526133345282233
 31
0.0
  0
LINE
  5
7E
100
AcDbEntity
100
AcDbLine
  8
trapper
 62
256
370
-1
  6
ByLayer
 10
813.2596651791570821
 20
1143.4526133345282233
 30
0.0
 11
813.2596651791570821
 21
1143.5162087342182531
 31
0.0
  0
LINE
  5
7F
100
AcDbEntity
100
AcDbLine
  8
trapper
 62
256
370
-1
  6
ByLayer
 10
813.2596651791570821
 20
1143.5162087342182531
 30
0.0
 11
815.0518991704192331
 21
1143.5162087342182531
 31
0.0
  0
LINE
  5
80
100
AcDbEntity
100
AcDbLine
  8
trapper
 62
256
370
-1
  6
ByLayer
 10
815.0518991704192331
 20
1143.5162087342182531
 30
0.0
 11
815.0518991704192331
 21
1143.4526133345282233
 31
0.0
  0
LINE
  5
81
100
AcDbEntity
100
AcDbLine
  8
trapper
 62
256
370
-1
  6
ByLayer
 10
813.2076325794107561
 20
1143.5740227339363173
 30
0.0
 11
815.1154945701092629
 21
1143.5740227339363173
 31
0.0
  0
LINE
  5
82
100
AcDbEntity
100
AcDbLine
  8
trapper
 62
256
370
-1
  6
ByLayer
 10
815.1154945701092629
 20
1143.5740227339363173
 30
0.0
 11
815.1154945701092629
 21
1143.4063621347536355
 31
0.0
  0
LINE
  5
83
100
AcDbEntity
100
AcDbLine
  8
trapper
 62
256
370
-1
  6
ByLayer
 10
815.1154945701092629
 20
1143.4063621347536355
 30
0.0
 11
813.2076325794107561
 21
1143.4063621347536355
 31
0.0
  0
LINE
  5
84
100
AcDbEntity
100
AcDbLine
  8
trapper
 62
256
370
-1
  6
ByLayer
 10
813.2076325794107561
 20
1143.4063621347536355
 30
0.0
 11
813.2076325794107561
 21
1143.5740227339363173
 31
0.0
  0
LINE
  5
85
100
AcDbEntity
100
AcDbLine
  8
trapper
 62
256
370
-1
  6
ByLayer
 10
813.2712279791006722
 20
1143.5682413339643517
 30
0.0
 11
813.2770093790725241
 21
1144.5452979292008422
 31
0.0
  0
LINE
  5
86
100
AcDbEntity
100
AcDbLine
  8
trapper
 62
256
370
-1
  6
ByLayer
 10
813.5017902099766616
 20
1143.5693976139589267
 30
0.0
 11
813.5128904979225126
 21
1144.5462229531965477
 31
0.0
  0
LINE
  5
87
100
AcDbEntity
100
AcDbLine
  8
trapper
 62
256
370
-1
  6
ByLayer
 10
813.7459965447860668
 20
1143.5730977099408392
 30
0.0
 11
813.7496966407679793
 21
1144.5425228572144078
 31
0.0
  0
LINE
  5
88
100
AcDbEntity
100
AcDbLine
  8
trapper
 62
256
370
-1
  6
ByLayer
 10
813.990202879595472
 20
1143.5767978059227516
 30
0.0
 11
813.9939029755773845
 21
1144.5425228572144078
 31
0.0
  0
LINE
  5
89
100
AcDbEntity
100
AcDbLine
  8
trapper
 62
256
370
-1
  6
ByLayer
 10
814.2492095983326408
 20
1143.5841979978865766
 30
0.0
 11
814.2566097902965794
 21
1144.5425228572144078
 31
0.0
  0
LINE
  5
8A
100
AcDbEntity
100
AcDbLine
  8
trapper
 62
256
370
-1
  6
ByLayer
 10
814.5156165090338618
 20
1143.5804979019046641
 30
0.0
 11
814.5341169889436514
 21
1144.5425228572144078
 31
0.0
  0
LINE
  5
8B
100
AcDbEntity
100
AcDbLine
  8
trapper
 62
256
370
-1
  6
ByLayer
 10
814.7968238036628463
 20
1143.5730977099408392
 30
0.0
 11
814.7894236116989077
 21
1144.5425228572144078
 31
0.0
  0
LINE
  5
8C
100
AcDbEntity
100
AcDbLine
  8
trapper
 62
256
370
-1
  6
ByLayer
 10
815.0373300424903391
 20
1143.5656975179767869
 30
0.0
 11
815.0410301384722516
 21
1144.5388227612324954
 31
0.0
  0
LINE
  5
8D
100
AcDbEntity
100
AcDbLine
  8
trapper
 62
256
370
-1
  6
DASHED
 10
813.2686841631131074
 20
1143.4028932947705925
 30
0.0
 11
813.2649840671311949
 21
1142.3742666117855151
 31
0.0
  0
LINE
  5
8E
100
AcDbEntity
100
AcDbLine
  8
trapper
 62
256
370
-1
  6
DASHED
 10
813.5017902099766616
 20
1143.406593390752505
 30
0.0
 11
813.5017902099766616
 21
1142.3742666117855151
 31
0.0
  0
LWPOLYLINE
  5
8F
  8
trapper
 62
256
370
-1
  6
DASHED
100
AcDbEntity
100
AcDbPolyline
 90
2
 70
0
 10
813.7422964488040407
 20
1143.406593390752505
 10
813.7496966407679793
 20
1142.3742666117855151
  0
LWPOLYLINE
  5
90
  8
trapper
 62
256
370
-1
  6
DASHED
100
AcDbEntity
100
AcDbPolyline
 90
2
 70
0
 10
813.9865027836134459
 20
1143.406593390752505
 10
813.9865027836134459
 20
1142.3742666117855151
  0
LWPOLYLINE
  5
91
  8
trapper
 62
256
370
-1
  6
DASHED
100
AcDbEntity
100
AcDbPolyline
 90
2
 70
0
 10
814.2492095983326408
 20
1143.406593390752505
 10
814.2492095983326408
 20
1142.3705665158036027
  0
LWPOLYLINE
  5
92
  8
trapper
 62
256
370
-1
  6
DASHED
100
AcDbEntity
100
AcDbPolyline
 90
2
 70
0
 10
814.5119164130519493
 20
1143.406593390752505
 10
814.5082163170699232
 20
1142.3668664198216902
  0
LWPOLYLINE
  5
93
  8
trapper
 62
256
370
-1
  6
DASHED
100
AcDbEntity
100
AcDbPolyline
 90
2
 70
0
 10
814.7968238036628463
 20
1143.406593390752505
 10
814.7968238036628463
 20
1142.3668664198216902
  0
LWPOLYLINE
  5
94
  8
trapper
 62
256
370
-1
  6
DASHED
100
AcDbEntity
100
AcDbPolyline
 90
2
 70
0
 10
815.033629946508313
 20
1143.406593390752505
 10
815.0225296585624619
 20
1142.3631663238397778
  0
LWPOLYLINE
  5
95
  8
trapper
 62
256
370
-1
  6
CONTINUOUS
100
AcDbEntity
100
AcDbPolyline
 90
11
 70
0
 10
811.340601726013233
 20
1155.0667232029049956
 10
814.8817092087490437
 20
1155.0396228905372027
 10
814.9810770207645874
 20
1155.1480241400086015
 10
814.9720435833086185
 20
1156.3404378841951257
 10
814.863642333837106
 20
1156.4217388212987316
 10
812.7498179691427822
 20
1156.4127053838428765
 10
812.7227176567748756
 20
1156.3404378841951257
 10
814.9088095211169502
 20
1156.3043041343712503
 10
814.9178429585728054
 20
1155.1660910149205392
 10
814.8365420214691994
 20
1155.1209238276408087
 10
811.3315682885572642
 20
1155.1389907025527464
  0
LWPOLYLINE
  5
96
  8
trapper
 62
256
370
-1
  6
CONTINUOUS
100
AcDbEntity
100
AcDbPolyline
 90
5
 70
0
 10
815.9438535580707139
 20
1155.3135022607018527
 10
815.8698516384314416
 20
1155.3320027406116424
 10
815.862451446467503
 20
1157.2523525552492174
 10
812.4620632390457331
 20
1157.2523525552492174
 10
812.4620632390457331
 20
1157.3411548588162532
  0
LWPOLYLINE
  5
97
  8
trapper
 62
256
370
-1
  6
CONTINUOUS
100
AcDbEntity
100
AcDbPolyline
 90
7
 70
0
 10
812.8986745649170871
 20
1156.319928367795228
 10
812.8616736050975078
 20
1156.194125104408613
 10
812.7913717814402617
 20
1156.1312234727151917
 10
812.6840689979633225
 20
1156.1349235686971042
 10
812.5767662144864971
 20
1156.2052253923543503
 10
812.5101644868111634
 20
1156.3421289436869301
 10
812.5101644868111634
 20
1157.2486524592673049
  0
LWPOLYLINE
  5
98
  8
trapper
 62
256
370
-1
  6
CONTINUOUS
100
AcDbEntity
100
AcDbPolyline
 90
2
 70
0
 10
812.7691712055484459
 20
1156.4161308633260887
 10
812.7765713975123845
 20
1157.2523525552492174
  0
LWPOLYLINE
  5
99
  8
trapper
 62
256
370
-1
  6
CONTINUOUS
100
AcDbEntity
100
AcDbPolyline
 90
2
 70
0
 10
813.0503785001774304
 20
1156.4161308633260887
 10
813.0503785001774304
 20
1157.2560526512311299
  0
LWPOLYLINE
  5
9A
  8
trapper
 62
256
370
-1
  6
CONTINUOUS
100
AcDbEntity
100
AcDbPolyline
 90
2
 70
0
 10
813.2723842590951335
 20
1156.423531055290141
 10
813.2575838751672563
 20
1157.2523525552492174
  0
LWPOLYLINE
  5
9B
  8
trapper
 62
256
370
-1
  6
CONTINUOUS
100
AcDbEntity
100
AcDbPolyline
 90
2
 70
0
 10
813.542491265778267
 20
1156.4198309593080012
 10
813.542491265778267
 20
1157.2523525552492174
  0
LWPOLYLINE
  5
9C
  8
trapper
 62
256
370
-1
  6
CONTINUOUS
100
AcDbEntity
100
AcDbPolyline
 90
2
 70
0
 10
813.7829975046056461
 20
1156.4161308633260887
 10
813.7866976005876722
 20
1157.2560526512311299
  0
LWPOLYLINE
  5
9D
  8
trapper
 62
256
370
-1
  6
CONTINUOUS
100
AcDbEntity
100
AcDbPolyline
 90
2
 70
0
 10
814.0087033595052617
 20
1156.423531055290141
 10
814.0161035514692003
 20
1157.2486524592673049
  0
LWPOLYLINE
  5
9E
  8
trapper
 62
256
370
-1
  6
CONTINUOUS
100
AcDbEntity
100
AcDbPolyline
 90
2
 70
0
 10
814.2603098862786055
 20
1156.4198309593080012
 10
814.3676126697554309
 20
1157.2523525552492174
  0
LWPOLYLINE
  5
9F
  8
trapper
 62
256
370
-1
  6
CONTINUOUS
100
AcDbEntity
100
AcDbPolyline
 90
2
 70
0
 10
814.482315645196195
 20
1156.4198309593080012
 10
814.6673204442942051
 20
1157.2560526512311299
  0
LWPOLYLINE
  5
A0
  8
trapper
 62
256
370
-1
  6
CONTINUOUS
100
AcDbEntity
100
AcDbPolyline
 90
2
 70
0
 10
814.7080215000958106
 20
1156.4272311512720535
 10
815.0262297545444881
 20
1157.2486524592673049
  0
LWPOLYLINE
  5
A1
  8
trapper
 62
256
370
-1
  6
CONTINUOUS
100
AcDbEntity
100
AcDbPolyline
 90
2
 70
0
 10
814.8486251474103028
 20
1156.4198309593080012
 10
815.3666385848848677
 20
1157.2523525552492174
  0
LWPOLYLINE
  5
A2
  8
trapper
 62
256
370
-1
  6
CONTINUOUS
100
AcDbEntity
100
AcDbPolyline
 90
2
 70
0
 10
814.9929288907068212
 20
1156.375429807524597
 10
815.8143501987020727
 20
1157.2523525552492174
  0
LWPOLYLINE
  5
A3
  8
trapper
 62
256
370
-1
  6
CONTINUOUS
100
AcDbEntity
100
AcDbPolyline
 90
2
 70
0
 10
814.9744284107970316
 20
1156.1867249124445607
 10
815.862451446467503
 20
1156.6344365262618794
  0
LWPOLYLINE
  5
A4
  8
trapper
 62
256
370
-1
  6
CONTINUOUS
100
AcDbEntity
100
AcDbPolyline
 90
2
 70
0
 10
814.9818286027608565
 20
1156.0461212651300684
 10
815.8661515424495292
 20
1156.2126255843184026
  0
LWPOLYLINE
  5
A5
  8
trapper
 62
256
370
-1
  6
CONTINUOUS
100
AcDbEntity
100
AcDbPolyline
 90
2
 70
0
 10
814.9744284107970316
 20
1155.8685166579959969
 10
815.8661515424495292
 20
1155.8574163700500321
  0
LWPOLYLINE
  5
A6
  8
trapper
 62
256
370
-1
  6
CONTINUOUS
100
AcDbEntity
100
AcDbPolyline
 90
2
 70
0
 10
814.9818286027608565
 20
1155.6169101312227667
 10
815.8661515424495292
 20
1155.605809843276802
  0
LWPOLYLINE
  5
A7
  8
trapper
 62
256
370
-1
  6
CONTINUOUS
100
AcDbEntity
100
AcDbPolyline
 90
2
 70
0
 10
815.0114293706166109
 20
1155.3394029325756946
 10
815.8698516384314416
 20
1155.3320027406116424
  0
LINE
  5
A8
100
AcDbEntity
100
AcDbLine
  8
trapper
 62
256
370
-1
  6
CONTINUOUS
 10
813.2789327832105073
 20
1152.8687659607849127
 30
0.0
 11
815.0301897434453622
 21
1152.8687659607849127
 31
0.0
  0
LINE
  5
A9
100
AcDbEntity
100
AcDbLine
  8
trapper
 62
256
370
-1
  6
CONTINUOUS
 10
815.0301897434453622
 20
1152.8687659607849127
 30
0.0
 11
815.0301897434453622
 21
1152.7670800727712503
 31
0.0
  0
LINE
  5
AA
100
AcDbEntity
100
AcDbLine
  8
trapper
 62
256
370
-1
  6
CONTINUOUS
 10
815.0301897434453622
 20
1152.7670800727712503
 30
0.0
 11
813.2789327832105073
 21
1152.7670800727712503
 31
0.0
  0
LINE
  5
AB
100
AcDbEntity
100
AcDbLine
  8
trapper
 62
256
370
-1
  6
CONTINUOUS
 10
813.2789327832105073
 20
1152.7670800727712503
 30
0.0
 11
813.2789327832105073
 21
1152.8687659607849127
 31
0.0
  0
LINE
  5
AC
100
AcDbEntity
100
AcDbLine
  8
trapper
 62
256
370
-1
  6
CONTINUOUS
 10
813.1447639031924837
 20
1152.9393811607942553
 30
0.0
 11
815.1431740634604921
 21
1152.9393811607942553
 31
0.0
  0
LINE
  5
AD
100
AcDbEntity
100
AcDbLine
  8
trapper
 62
256
370
-1
  6
CONTINUOUS
 10
815.1431740634604921
 20
1152.9393811607942553
 30
0.0
 11
815.1431740634604921
 21
1152.6569203607564305
 31
0.0
  0
LINE
  5
AE
100
AcDbEntity
100
AcDbLine
  8
trapper
 62
256
370
-1
  6
CONTINUOUS
 10
815.1431740634604921
 20
1152.6569203607564305
 30
0.0
 11
813.1447639031924837
 21
1152.6569203607564305
 31
0.0
  0
LINE
  5
AF
100
AcDbEntity
100
AcDbLine
  8
trapper
 62
256
370
-1
  6
CONTINUOUS
 10
813.1447639031924837
 20
1152.6569203607564305
 30
0.0
 11
813.1447639031924837
 21
1152.9393811607942553
 31
0.0
  0
LINE
  5
B0
100
AcDbEntity
100
AcDbLine
  8
trapper
 62
256
370
-1
  6
CONTINUOUS
 10
813.2506867032067248
 20
1152.9393811607942553
 30
0.0
 11
813.2295021432039448
 21
1153.8220711609126283
 31
0.0
  0
LINE
  5
B1
100
AcDbEntity
100
AcDbLine
  8
trapper
 62
256
370
-1
  6
CONTINUOUS
 10
813.4978399032398784
 20
1152.9393811607942553
 30
0.0
 11
813.4837168632379871
 21
1153.8361942009146333
 31
0.0
  0
LINE
  5
B2
100
AcDbEntity
100
AcDbLine
  8
trapper
 62
256
370
-1
  6
CONTINUOUS
 10
813.7449931032730319
 20
1152.9393811607942553
 30
0.0
 11
813.7308700632711407
 21
1153.8291326809135171
 31
0.0
  0
LINE
  5
B3
100
AcDbEntity
100
AcDbLine
  8
trapper
 62
256
370
-1
  6
CONTINUOUS
 10
813.985084783305183
 20
1152.9393811607942553
 30
0.0
 11
813.9780232633042942
 21
1153.8220711609126283
 31
0.0
  0
LINE
  5
B4
100
AcDbEntity
100
AcDbLine
  8
trapper
 62
256
370
-1
  6
CONTINUOUS
 10
814.2251764633374478
 20
1152.9393811607942553
 30
0.0
 11
814.2251764633374478
 21
1153.8220711609126283
 31
0.0
  0
LINE
  5
B5
100
AcDbEntity
100
AcDbLine
  8
trapper
 62
256
370
-1
  6
CONTINUOUS
 10
814.4935142233733814
 20
1152.9393811607942553
 30
0.0
 11
814.5076372633752726
 21
1153.8220711609126283
 31
0.0
  0
LINE
  5
B6
100
AcDbEntity
100
AcDbLine
  8
trapper
 62
256
370
-1
  6
CONTINUOUS
 10
814.7830365434122086
 20
1152.9323196407933665
 30
0.0
 11
814.7830365434122086
 21
1153.8220711609126283
 31
0.0
  0
LINE
  5
B7
100
AcDbEntity
100
AcDbLine
  8
trapper
 62
256
370
-1
  6
DOTX2
 10
813.2295021432039448
 20
1152.6710434007584354
 30
0.0
 11
813.2365636632048336
 21
1151.6188769206171401
 31
0.0
  0
LINE
  5
B8
100
AcDbEntity
100
AcDbLine
  8
trapper
 62
256
370
-1
  6
DOTX2
 10
813.4837168632379871
 20
1151.6259384406182562
 30
0.0
 11
813.4766553432369847
 21
1152.6569203607564305
 31
0.0
  0
LINE
  5
B9
100
AcDbEntity
100
AcDbLine
  8
trapper
 62
256
370
-1
  6
DOTX2
 10
813.7308700632711407
 20
1151.6118154006162513
 30
0.0
 11
813.7379315832720295
 21
1152.6498588407555417
 31
0.0
  0
LINE
  5
BA
100
AcDbEntity
100
AcDbLine
  8
trapper
 62
256
370
-1
  6
DOTX2
 10
814.0062693433080767
 20
1151.6118154006162513
 30
0.0
 11
813.9992078233070742
 21
1152.6569203607564305
 31
0.0
  0
LINE
  5
BB
100
AcDbEntity
100
AcDbLine
  8
trapper
 62
256
370
-1
  6
DOTX2
 10
814.2280010713377578
 20
1151.6207863556255688
 30
0.0
 11
814.2337858685225456
 21
1152.6562650517003021
 31
0.0
  0
LINE
  5
BC
100
AcDbEntity
100
AcDbLine
  8
trapper
 62
256
370
-1
  6
DOTX2
 10
814.5027789376146075
 20
1151.6265711528103566
 30
0.0
 11
814.5027789376146075
 21
1152.6562650517003021
 31
0.0
  0
LINE
  5
BD
100
AcDbEntity
100
AcDbLine
  8
trapper
 62
256
370
-1
  6
DOTX2
 10
814.780449202483851
 20
1151.6323559499951443
 30
0.0
 11
814.7775568038914571
 21
1152.6533726531079083
 31
0.0
  0
LINE
  5
BE
100
AcDbEntity
100
AcDbLine
  8
trapper
 62
256
370
-1
  6
DOTX2
 10
815.0320878800216633
 20
1151.6294635514027505
 30
0.0
 11
815.0291954814292694
 21
1152.6562650517003021
 31
0.0
  0
LINE
  5
BF
100
AcDbEntity
100
AcDbLine
  8
baering
 62
256
370
-1
  6
ByLayer
 10
804.4482829089822644
 20
1153.3226260368696785
 30
0.0
 11
804.4513554381009044
 21
1153.9555670353222467
 31
0.0
  0
LINE
  5
C0
100
AcDbEntity
100
AcDbLine
  8
baering
 62
256
370
-1
  6
ByLayer
 10
804.4513554381009044
 20
1153.9555670353222467
 30
0.0
 11
805.9461942148130902
 21
1153.9555670353222467
 31
0.0
  0
LINE
  5
C1
100
AcDbEntity
100
AcDbLine
  8
baering
 62
256
370
-1
  6
ByLayer
 10
805.9461942148130902
 20
1153.9555670353222467
 30
0.0
 11
805.9720847642287254
 21
1153.9977636434484793
 31
0.0
  0
LINE
  5
C2
100
AcDbEntity
100
AcDbLine
  8
baering
 62
256
370
-1
  6
ByLayer
 10
806.413469250120329
 20
1153.7336673647655516
 30
0.0
 11
806.3384043889008126
 21
1153.611458108999841
 31
0.0
  0
LINE
  5
C3
100
AcDbEntity
100
AcDbLine
  8
baering
 62
256
370
-1
  6
ByLayer
 10
806.3384043889008126
 20
1153.611458108999841
 30
0.0
 11
806.1518977450670036
 21
1153.4398852933370563
 31
0.0
  0
LINE
  5
C4
100
AcDbEntity
100
AcDbLine
  8
baering
 62
256
370
-1
  6
ByLayer
 10
804.8162684816536512
 20
1153.3226001154264395
 30
0.0
 11
804.4482829089822644
 21
1153.3226260368696785
 31
0.0
  0
LINE
  5
C5
100
AcDbEntity
100
AcDbLine
  8
baering
 62
256
370
-1
  6
ByLayer
 10
804.4482829089822644
 20
1153.3226260368696785
 30
0.0
 11
804.4513554381009044
 21
1153.9555670353222467
 31
0.0
  0
LINE
  5
C6
100
AcDbEntity
100
AcDbLine
  8
baering
 62
256
370
-1
  6
ByLayer
 10
804.4513554381009044
 20
1153.9555670353222467
 30
0.0
 11
805.9461942148130902
 21
1153.9555670353222467
 31
0.0
  0
LINE
  5
C7
100
AcDbEntity
100
AcDbLine
  8
baering
 62
256
370
-1
  6
ByLayer
 10
805.9461942148130902
 20
1153.9555670353222467
 30
0.0
 11
805.9720847642287254
 21
1153.9977636434484793
 31
0.0
  0
LINE
  5
C8
100
AcDbEntity
100
AcDbLine
  8
baering
 62
256
370
-1
  6
ByLayer
 10
805.9720847642287254
 20
1153.9977636434484793
 30
0.0
 11
806.413469250120329
 21
1153.7336673647655516
 31
0.0
  0
LINE
  5
C9
100
AcDbEntity
100
AcDbLine
  8
baering
 62
256
370
-1
  6
ByLayer
 10
806.413469250120329
 20
1153.7336673647655516
 30
0.0
 11
806.3405529447405797
 21
1153.6093313659096111
 31
0.0
  0
LINE
  5
CA
100
AcDbEntity
100
AcDbLine
  8
baering
 62
256
370
-1
  6
ByLayer
 10
806.3405529447405797
 20
1153.6093313659096111
 30
0.0
 11
806.1435726822339802
 21
1153.4317242459503632
 31
0.0
  0
LINE
  5
CB
100
AcDbEntity
100
AcDbLine
  8
baering
 62
256
370
-1
  6
ByLayer
 10
806.1435726822339802
 20
1153.4317242459503632
 30
0.0
 11
805.9646946947228798
 21
1153.611458108999841
 31
0.0
  0
LINE
  5
CC
100
AcDbEntity
100
AcDbLine
  8
baering
 62
256
370
-1
  6
ByLayer
 10
805.9646946947228798
 20
1153.611458108999841
 30
0.0
 11
804.8176649403150122
 21
1153.6151582049817534
 31
0.0
  0
LINE
  5
CD
100
AcDbEntity
100
AcDbLine
  8
baering
 62
256
370
-1
  6
ByLayer
 10
804.8176649403150122
 20
1153.6151582049817534
 30
0.0
 11
804.8162684816536512
 21
1153.3226001154264395
 31
0.0
  0
LINE
  5
CE
100
AcDbEntity
100
AcDbLine
  8
baering
 62
256
370
-1
  6
ByLayer
 10
804.4453565637151087
 20
1152.3897862412911763
 30
0.0
 11
804.8118158682998455
 21
1152.389777617800064
 31
0.0
  0
LINE
  5
CF
100
AcDbEntity
100
AcDbLine
  8
baering
 62
256
370
-1
  6
ByLayer
 10
804.8118158682998455
 20
1152.389777617800064
 30
0.0
 11
804.8102647483510736
 21
1152.0648179885401987
 31
0.0
  0
LINE
  5
D0
100
AcDbEntity
100
AcDbLine
  8
baering
 62
256
370
-1
  6
ByLayer
 10
804.8102647483510736
 20
1152.0648179885401987
 30
0.0
 11
805.9350351646545505
 21
1152.05573269035267
 31
0.0
  0
LINE
  5
D1
100
AcDbEntity
100
AcDbLine
  8
baering
 62
256
370
-1
  6
ByLayer
 10
805.9350351646545505
 20
1152.05573269035267
 30
0.0
 11
806.2074007222862519
 21
1152.3208619853908203
 31
0.0
  0
LINE
  5
D2
100
AcDbEntity
100
AcDbLine
  8
baering
 62
256
370
-1
  6
ByLayer
 10
806.2074007222862519
 20
1152.3208619853908203
 30
0.0
 11
806.4126896913095379
 21
1152.1110551754945845
 31
0.0
  0
LINE
  5
D3
100
AcDbEntity
100
AcDbLine
  8
baering
 62
256
370
-1
  6
ByLayer
 10
806.4126896913095379
 20
1152.1110551754945845
 30
0.0
 11
806.3454141446936774
 21
1152.0474052612598825
 31
0.0
  0
LINE
  5
D4
100
AcDbEntity
100
AcDbLine
  8
baering
 62
256
370
-1
  6
ByLayer
 10
806.3454141446936774
 20
1152.0474052612598825
 30
0.0
 11
806.3393294128962907
 21
1152.0437736926426169
 31
0.0
  0
LINE
  5
D5
100
AcDbEntity
100
AcDbLine
  8
baering
 62
256
370
-1
  6
ByLayer
 10
806.3393294128962907
 20
1152.0437736926426169
 30
0.0
 11
806.4766251736065215
 21
1151.7648465156205475
 31
0.0
  0
LINE
  5
D6
100
AcDbEntity
100
AcDbLine
  8
baering
 62
256
370
-1
  6
ByLayer
 10
806.4766251736065215
 20
1151.7648465156205475
 30
0.0
 11
805.9963521546740139
 21
1151.5413126209386974
 31
0.0
  0
LINE
  5
D7
100
AcDbEntity
100
AcDbLine
  8
baering
 62
256
370
-1
  6
ByLayer
 10
805.9963521546740139
 20
1151.5413126209386974
 30
0.0
 11
805.9485022451825671
 21
1151.6417153559657436
 31
0.0
  0
LINE
  5
D8
100
AcDbEntity
100
AcDbLine
  8
baering
 62
256
370
-1
  6
ByLayer
 10
805.9485022451825671
 20
1151.6417153559657436
 30
0.0
 11
804.4452996570460073
 21
1151.6688333522756693
 31
0.0
  0
LINE
  5
D9
100
AcDbEntity
100
AcDbLine
  8
baering
 62
256
370
-1
  6
ByLayer
 10
804.4453565637151087
 20
1152.3897862412911763
 30
0.0
 11
804.4452996570460073
 21
1151.6688333522756693
 31
0.0
  0
LINE
  5
DA
100
AcDbEntity
100
AcDbLine
  8
baering
 62
256
370
-1
  6
ByLayer
 10
804.4452996570460073
 20
1151.6688333522756693
 30
0.0
 11
805.9485022451825671
 21
1151.6417153559657436
 31
0.0
  0
LINE
  5
DB
100
AcDbEntity
100
AcDbLine
  8
baering
 62
256
370
-1
  6
ByLayer
 10
806.426745412499713
 20
1149.8753905097998995
 30
0.0
 11
806.9337532488490297
 21
1149.8788723907791791
 31
0.0
  0
LINE
  5
DC
100
AcDbEntity
100
AcDbLine
  8
baering
 62
256
370
-1
  6
ByLayer
 10
806.9337532488490297
 20
1149.8788723907791791
 30
0.0
 11
806.940595009964909
 21
1150.8238982985899383
 31
0.0
  0
LINE
  5
DD
100
AcDbEntity
100
AcDbLine
  8
baering
 62
256
370
-1
  6
ByLayer
 10
806.940595009964909
 20
1150.8238982985899383
 30
0.0
 11
806.888562410218583
 21
1150.9279634980825904
 31
0.0
  0
LINE
  5
DE
100
AcDbEntity
100
AcDbLine
  8
baering
 62
256
370
-1
  6
ByLayer
 10
806.888562410218583
 20
1150.9279634980825904
 30
0.0
 11
806.8604114330671564
 21
1150.9851544306111464
 31
0.0
  0
LINE
  5
DF
100
AcDbEntity
100
AcDbLine
  8
baering
 62
256
370
-1
  6
ByLayer
 10
806.8604114330671564
 20
1150.9851544306111464
 30
0.0
 11
806.3577864378819413
 21
1150.7565193112902762
 31
0.0
  0
LINE
  5
E0
100
AcDbEntity
100
AcDbLine
  8
baering
 62
256
370
-1
  6
ByLayer
 10
806.3577864378819413
 20
1150.7565193112902762
 30
0.0
 11
806.4235065964859359
 21
1150.6143803636118719
 31
0.0
  0
LINE
  5
E1
100
AcDbEntity
100
AcDbLine
  8
baering
 62
256
370
-1
  6
ByLayer
 10
806.4235065964859359
 20
1150.6143803636118719
 30
0.0
 11
806.426745412499713
 21
1149.8753905097998995
 31
0.0
  0
LINE
  5
E2
100
AcDbEntity
100
AcDbLine
  8
baering
 62
256
370
-1
  6
ByLayer
 10
806.9337532488490297
 20
1149.8788723907791791
 30
0.0
 11
806.9337532488490297
 21
1149.8788723907791791
 31
0.0
  0
LINE
  5
E3
100
AcDbEntity
100
AcDbLine
  8
baering
 62
256
370
-1
  6
ByLayer
 10
806.9463764099366472
 20
1147.3369243644565358
 30
0.0
 11
806.437870963242176
 21
1147.3369106820650813
 31
0.0
  0
LINE
  5
E4
100
AcDbEntity
100
AcDbLine
  8
baering
 62
256
370
-1
  6
ByLayer
 10
806.437870963242176
 20
1147.3369106820650813
 30
0.0
 11
806.4341899609067923
 21
1148.7874545480556208
 31
0.0
  0
LINE
  5
E5
100
AcDbEntity
100
AcDbLine
  8
baering
 62
256
370
-1
  6
ByLayer
 10
806.4341899609067923
 20
1148.7874545480556208
 30
0.0
 11
806.9361679814329591
 21
1148.7874651739050478
 31
0.0
  0
LINE
  5
E6
100
AcDbEntity
100
AcDbLine
  8
baering
 62
256
370
-1
  6
ByLayer
 10
806.9361679814329591
 20
1148.7874651739050478
 30
0.0
 11
806.9463764099366472
 21
1147.3369243644565358
 31
0.0
  0
LINE
  5
E7
100
AcDbEntity
100
AcDbLine
  8
baering
 62
256
370
-1
  6
ByLayer
 10
806.4426962737993563
 20
1146.2359356565987127
 30
0.0
 11
806.9463764099366472
 21
1146.2359090420479788
 31
0.0
  0
LINE
  5
E8
100
AcDbEntity
100
AcDbLine
  8
baering
 62
256
370
-1
  6
ByLayer
 10
806.9463764099366472
 20
1146.2359090420479788
 30
0.0
 11
806.9463764099366472
 21
1145.412507924972715
 31
0.0
  0
LINE
  5
E9
100
AcDbEntity
100
AcDbLine
  8
baering
 62
256
370
-1
  6
ByLayer
 10
806.9463764099366472
 20
1145.412507924972715
 30
0.0
 11
806.886001985547523
 21
1145.3223180854126895
 31
0.0
  0
LINE
  5
EA
100
AcDbEntity
100
AcDbLine
  8
baering
 62
256
370
-1
  6
ByLayer
 10
806.886001985547523
 20
1145.3223180854126895
 30
0.0
 11
806.8456475052278165
 21
1145.2426600123872049
 31
0.0
  0
LINE
  5
EB
100
AcDbEntity
100
AcDbLine
  8
baering
 62
256
370
-1
  6
ByLayer
 10
806.8456475052278165
 20
1145.2426600123872049
 30
0.0
 11
806.4210353585640405
 21
1145.5032184619476539
 31
0.0
  0
LINE
  5
EC
100
AcDbEntity
100
AcDbLine
  8
baering
 62
256
370
-1
  6
ByLayer
 10
806.4210353585640405
 20
1145.5032184619476539
 30
0.0
 11
806.4457071723777517
 21
1145.5489489643077832
 31
0.0
  0
LINE
  5
ED
100
AcDbEntity
100
AcDbLine
  8
baering
 62
256
370
-1
  6
ByLayer
 10
806.4457071723777517
 20
1145.5489489643077832
 30
0.0
 11
806.4426962737993563
 21
1146.2359356565987127
 31
0.0
  0
LINE
  5
EE
100
AcDbEntity
100
AcDbLine
  8
baering
 62
256
370
-1
  6
ByLayer
 10
804.8140891736970843
 20
1144.0418044290056514
 30
0.0
 11
804.4519515224893667
 21
1144.0513595322379388
 31
0.0
  0
LINE
  5
EF
100
AcDbEntity
100
AcDbLine
  8
baering
 62
256
370
-1
  6
ByLayer
 10
804.4519515224893667
 20
1144.0513595322379388
 30
0.0
 11
804.4550555340829305
 21
1144.7756289040780757
 31
0.0
  0
LINE
  5
F0
100
AcDbEntity
100
AcDbLine
  8
baering
 62
256
370
-1
  6
ByLayer
 10
804.4550555340829305
 20
1144.7756289040780757
 30
0.0
 11
806.0867978621275824
 21
1144.7756289040780757
 31
0.0
  0
LINE
  5
F1
100
AcDbEntity
100
AcDbLine
  8
baering
 62
256
370
-1
  6
ByLayer
 10
806.0867978621275824
 20
1144.7756289040780757
 30
0.0
 11
806.1075382120217228
 21
1144.8066572451887168
 31
0.0
  0
LINE
  5
F2
100
AcDbEntity
100
AcDbLine
  8
baering
 62
256
370
-1
  6
ByLayer
 10
806.1075382120217228
 20
1144.8066572451887168
 30
0.0
 11
806.5270858583523932
 21
1144.5724239469213899
 31
0.0
  0
LINE
  5
F3
100
AcDbEntity
100
AcDbLine
  8
baering
 62
256
370
-1
  6
ByLayer
 10
806.5270858583523932
 20
1144.5724239469213899
 30
0.0
 11
806.41137506448149
 21
1144.3656826563169489
 31
0.0
  0
LINE
  5
F4
100
AcDbEntity
100
AcDbLine
  8
baering
 62
256
370
-1
  6
ByLayer
 10
806.41137506448149
 20
1144.3656826563169489
 30
0.0
 11
806.4570894679665116
 21
1144.3119267937142922
 31
0.0
  0
LINE
  5
F5
100
AcDbEntity
100
AcDbLine
  8
baering
 62
256
370
-1
  6
ByLayer
 10
806.4570894679665116
 20
1144.3119267937142922
 30
0.0
 11
806.22886042127368
 21
1144.0752343162519082
 31
0.0
  0
LINE
  5
F6
100
AcDbEntity
100
AcDbLine
  8
baering
 62
256
370
-1
  6
ByLayer
 10
806.22886042127368
 20
1144.0752343162519082
 30
0.0
 11
805.9519352148549842
 21
1144.3502840380162979
 31
0.0
  0
LINE
  5
F7
100
AcDbEntity
100
AcDbLine
  8
baering
 62
256
370
-1
  6
ByLayer
 10
805.9519352148549842
 20
1144.3502840380162979
 30
0.0
 11
804.8130398203376217
 21
1144.3545117301309801
 31
0.0
  0
LINE
  5
F8
100
AcDbEntity
100
AcDbLine
  8
baering
 62
256
370
-1
  6
ByLayer
 10
804.8130398203376217
 20
1144.3545117301309801
 30
0.0
 11
804.8140891736970843
 21
1144.0418044290056514
 31
0.0
  0
LINE
  5
F9
100
AcDbEntity
100
AcDbLine
  8
baering
 62
256
370
-1
  6
ByLayer
 10
804.4477906963146552
 20
1143.0805000914808716
 30
0.0
 11
804.817311897003492
 21
1143.0814328836941058
 31
0.0
  0
LINE
  5
FA
100
AcDbEntity
100
AcDbLine
  8
baering
 62
256
370
-1
  6
ByLayer
 10
804.817311897003492
 20
1143.0814328836941058
 30
0.0
 11
804.8188212203093599
 21
1142.6316545385307109
 31
0.0
  0
LINE
  5
FB
100
AcDbEntity
100
AcDbLine
  8
baering
 62
256
370
-1
  6
ByLayer
 10
804.8188212203093599
 20
1142.6316545385307109
 30
0.0
 11
806.0676036142210705
 21
1142.6258731385587453
 31
0.0
  0
LINE
  5
FC
100
AcDbEntity
100
AcDbLine
  8
baering
 62
256
370
-1
  6
ByLayer
 10
806.0676036142210705
 20
1142.6258731385587453
 30
0.0
 11
806.3418274849760792
 21
1142.8891475010914291
 31
0.0
  0
LINE
  5
FD
100
AcDbEntity
100
AcDbLine
  8
baering
 62
256
370
-1
  6
ByLayer
 10
806.3418274849760792
 20
1142.8891475010914291
 30
0.0
 11
806.5145929068239639
 21
1142.7182499146917962
 31
0.0
  0
LINE
  5
FE
100
AcDbEntity
100
AcDbLine
  8
baering
 62
256
370
-1
  6
ByLayer
 10
806.5145929068239639
 20
1142.7182499146917962
 30
0.0
 11
806.3902057326482691
 21
1142.6027475386715651
 31
0.0
  0
LINE
  5
FF
100
AcDbEntity
100
AcDbLine
  8
baering
 62
256
370
-1
  6
ByLayer
 10
806.3902057326482691
 20
1142.6027475386715651
 30
0.0
 11
806.4824178303377948
 21
1142.4174691736084242
 31
0.0
  0
LINE
  5
100
100
AcDbEntity
100
AcDbLine
  8
baering
 62
256
370
-1
  6
ByLayer
 10
806.4824178303377948
 20
1142.4174691736084242
 30
0.0
 11
806.008030819212081
 21
1142.1216195017607333
 31
0.0
  0
LINE
  5
101
100
AcDbEntity
100
AcDbLine
  8
baering
 62
256
370
-1
  6
ByLayer
 10
806.008030819212081
 20
1142.1216195017607333
 30
0.0
 11
805.9794950786506433
 21
1142.1818616207235664
 31
0.0
  0
LINE
  5
102
100
AcDbEntity
100
AcDbLine
  8
baering
 62
256
370
-1
  6
ByLayer
 10
805.9794950786506433
 20
1142.1818616207235664
 30
0.0
 11
804.4439552461370795
 21
1142.1855617167054788
 31
0.0
  0
LINE
  5
103
100
AcDbEntity
100
AcDbLine
  8
baering
 62
256
370
-1
  6
ByLayer
 10
804.4439552461370795
 20
1142.1855617167054788
 30
0.0
 11
804.4477906963146552
 21
1143.0805000914808716
 31
0.0
  0
LINE
  5
104
100
AcDbEntity
100
AcDbLine
  8
baering
 62
256
370
-1
  6
ByLayer
 10
806.8304803679386623
 20
1143.3779289454150785
 30
0.0
 11
807.0184674178107116
 21
1143.1861333891795312
 31
0.0
  0
LINE
  5
105
100
AcDbEntity
100
AcDbLine
  8
baering
 62
256
370
-1
  6
ByLayer
 10
807.0184674178107116
 20
1143.1861333891795312
 30
0.0
 11
807.2967292482286439
 21
1143.4445193745675624
 31
0.0
  0
LINE
  5
106
100
AcDbEntity
100
AcDbLine
  8
baering
 62
256
370
-1
  6
ByLayer
 10
807.2967292482286439
 20
1143.4445193745675624
 30
0.0
 11
807.2597282884090646
 21
1143.5185212942069484
 31
0.0
  0
LINE
  5
107
100
AcDbEntity
100
AcDbLine
  8
baering
 62
256
370
-1
  6
ByLayer
 10
807.2597282884090646
 20
1143.5185212942069484
 30
0.0
 11
807.017541036908824
 21
1143.7636343372873853
 31
0.0
  0
LINE
  5
108
100
AcDbEntity
100
AcDbLine
  8
baering
 62
256
370
-1
  6
ByLayer
 10
807.017541036908824
 20
1143.7636343372873853
 30
0.0
 11
806.7850205149705971
 21
1143.5260262237261486
 31
0.0
  0
LINE
  5
109
100
AcDbEntity
100
AcDbLine
  8
baering
 62
256
370
-1
  6
ByLayer
 10
806.7850205149705971
 20
1143.5260262237261486
 30
0.0
 11
806.8827810102468447
 21
1143.4294877346408157
 31
0.0
  0
LINE
  5
10A
100
AcDbEntity
100
AcDbLine
  8
baering
 62
256
370
-1
  6
ByLayer
 10
806.8827810102468447
 20
1143.4294877346408157
 30
0.0
 11
806.8304803679386623
 21
1143.3779289454150785
 31
0.0
  0
LINE
  5
10B
100
AcDbEntity
100
AcDbLine
  8
baering
 62
256
370
-1
  6
ByLayer
 10
806.9397019447194452
 20
1139.2653992354946695
 30
0.0
 11
806.4097325833419063
 21
1139.2653177397123727
 31
0.0
  0
LINE
  5
10C
100
AcDbEntity
100
AcDbLine
  8
baering
 62
256
370
-1
  6
ByLayer
 10
806.4097325833419063
 20
1139.2653177397123727
 30
0.0
 11
806.4087062125581724
 21
1138.4965660226907858
 31
0.0
  0
LINE
  5
10D
100
AcDbEntity
100
AcDbLine
  8
baering
 62
256
370
-1
  6
ByLayer
 10
806.4087062125581724
 20
1138.4965660226907858
 30
0.0
 11
816.467610486856529
 21
1138.4891670493370839
 31
0.0
  0
LINE
  5
10E
100
AcDbEntity
100
AcDbLine
  8
baering
 62
256
370
-1
  6
ByLayer
 10
816.467610486856529
 20
1138.4891670493370839
 30
0.0
 11
816.4710808703551947
 21
1139.6709034233847433
 31
0.0
  0
LINE
  5
10F
100
AcDbEntity
100
AcDbLine
  8
baering
 62
256
370
-1
  6
ByLayer
 10
816.4710808703551947
 20
1139.6709034233847433
 30
0.0
 11
815.9798316556043574
 21
1139.6664543167562442
 31
0.0
  0
LINE
  5
110
100
AcDbEntity
100
AcDbLine
  8
baering
 62
256
370
-1
  6
ByLayer
 10
815.9798316556043574
 20
1139.6664543167562442
 30
0.0
 11
815.9827045658812494
 21
1138.8390561570211048
 31
0.0
  0
LINE
  5
111
100
AcDbEntity
100
AcDbLine
  8
baering
 62
256
370
-1
  6
ByLayer
 10
815.9827045658812494
 20
1138.8390561570211048
 30
0.0
 11
811.3633659884022791
 21
1138.8910887567674308
 31
0.0
  0
LINE
  5
112
100
AcDbEntity
100
AcDbLine
  8
baering
 62
256
370
-1
  6
ByLayer
 10
811.1211044248215103
 20
1139.6988519676137912
 30
0.0
 11
811.120547189586091
 21
1139.1917215553016831
 31
0.0
  0
LINE
  5
113
100
AcDbEntity
100
AcDbLine
  8
baering
 62
256
370
-1
  6
ByLayer
 10
810.742145360396421
 20
1138.8915933606615454
 30
0.0
 11
806.9463764099367609
 21
1138.9026515567109072
 31
0.0
  0
LINE
  5
114
100
AcDbEntity
100
AcDbLine
  8
baering
 62
256
370
-1
  6
ByLayer
 10
806.9463764099367609
 20
1138.9026515567109072
 30
0.0
 11
806.9397019447194452
 21
1139.2653992354946695
 31
0.0
  0
LINE
  5
115
100
AcDbEntity
100
AcDbLine
  8
baering
 62
256
370
-1
  6
ByLayer
 10
806.9488119184672996
 20
1140.6734176936620315
 30
0.0
 11
806.4116125594313189
 21
1140.6734198307406132
 31
0.0
  0
LINE
  5
116
100
AcDbEntity
100
AcDbLine
  8
baering
 62
256
370
-1
  6
ByLayer
 10
806.4116125594313189
 20
1140.6734198307406132
 30
0.0
 11
806.4124063085400849
 21
1141.2679379131793667
 31
0.0
  0
LINE
  5
117
100
AcDbEntity
100
AcDbLine
  8
baering
 62
256
370
-1
  6
ByLayer
 10
806.4124063085400849
 20
1141.2679379131793667
 30
0.0
 11
806.349981775072024
 21
1141.3997230393897553
 31
0.0
  0
LINE
  5
118
100
AcDbEntity
100
AcDbLine
  8
baering
 62
256
370
-1
  6
ByLayer
 10
806.349981775072024
 20
1141.3997230393897553
 30
0.0
 11
806.8830158775117525
 21
1141.6523279735777123
 31
0.0
  0
LINE
  5
119
100
AcDbEntity
100
AcDbLine
  8
baering
 62
256
370
-1
  6
ByLayer
 10
806.8830158775117525
 20
1141.6523279735777123
 30
0.0
 11
806.9187849729635218
 21
1141.5990955360396129
 31
0.0
  0
LINE
  5
11A
100
AcDbEntity
100
AcDbLine
  8
baering
 62
256
370
-1
  6
ByLayer
 10
806.9187849729635218
 20
1141.5990955360396129
 30
0.0
 11
806.9521578099086128
 21
1141.4985001440552423
 31
0.0
  0
LINE
  5
11B
100
AcDbEntity
100
AcDbLine
  8
baering
 62
256
370
-1
  6
ByLayer
 10
806.9521578099086128
 20
1141.4985001440552423
 30
0.0
 11
806.9488119184672996
 21
1140.6734176936620315
 31
0.0
  0
LINE
  5
11C
100
AcDbEntity
100
AcDbLine
  8
baering
 62
256
370
-1
  6
ByLayer
 10
812.3426341920152254
 20
1142.1911334957790132
 30
0.0
 11
812.3426347166144978
 21
1142.3824660507207227
 31
0.0
  0
LINE
  5
11D
100
AcDbEntity
100
AcDbLine
  8
baering
 62
256
370
-1
  6
ByLayer
 10
812.3426347166144978
 20
1142.3824660507207227
 30
0.0
 11
812.2479201840897076
 21
1142.3830543397427846
 31
0.0
  0
LINE
  5
11E
100
AcDbEntity
100
AcDbLine
  8
baering
 62
256
370
-1
  6
ByLayer
 10
812.2479201840897076
 20
1142.3830543397427846
 30
0.0
 11
812.2479201840897076
 21
1142.4776662904987461
 31
0.0
  0
LINE
  5
11F
100
AcDbEntity
100
AcDbLine
  8
baering
 62
256
370
-1
  6
ByLayer
 10
812.2479201840897076
 20
1142.4776662904987461
 30
0.0
 11
812.010421367569279
 21
1142.4776723213817604
 31
0.0
  0
LINE
  5
120
100
AcDbEntity
100
AcDbLine
  8
baering
 62
256
370
-1
  6
ByLayer
 10
812.010421367569279
 20
1142.4776723213817604
 30
0.0
 11
812.0108827852453715
 21
1142.394617139686261
 31
0.0
  0
LINE
  5
121
100
AcDbEntity
100
AcDbLine
  8
baering
 62
256
370
-1
  6
ByLayer
 10
812.0108827852453715
 20
1142.394617139686261
 30
0.0
 11
811.8605805072078283
 21
1142.2516212223868024
 31
0.0
  0
LINE
  5
122
100
AcDbEntity
100
AcDbLine
  8
baering
 62
256
370
-1
  6
ByLayer
 10
811.8605805072078283
 20
1142.2516212223868024
 30
0.0
 11
812.0172126753034263
 21
1142.0815080176671472
 31
0.0
  0
LINE
  5
123
100
AcDbEntity
100
AcDbLine
  8
baering
 62
256
370
-1
  6
ByLayer
 10
812.0172126753034263
 20
1142.0815080176671472
 30
0.0
 11
812.1554177845406457
 21
1142.1922681406729225
 31
0.0
  0
LINE
  5
124
100
AcDbEntity
100
AcDbLine
  8
baering
 62
256
370
-1
  6
ByLayer
 10
812.1554177845406457
 20
1142.1922681406729225
 30
0.0
 11
812.3426341920152254
 21
1142.1911334957790132
 31
0.0
  0
LINE
  5
125
100
AcDbEntity
100
AcDbLine
  8
baering
 62
256
370
-1
  6
ByLayer
 10
811.9993199853017813
 20
1144.435451329736452
 30
0.0
 11
812.2489578333819509
 21
1144.4350475752580678
 31
0.0
  0
LINE
  5
126
100
AcDbEntity
100
AcDbLine
  8
baering
 62
256
370
-1
  6
ByLayer
 10
812.2489578333819509
 20
1144.4350475752580678
 30
0.0
 11
812.2479201840897076
 21
1144.5510793291728078
 31
0.0
  0
LINE
  5
127
100
AcDbEntity
100
AcDbLine
  8
baering
 62
256
370
-1
  6
ByLayer
 10
812.2479201840897076
 20
1144.5510793291728078
 30
0.0
 11
815.9537975660221036
 21
1144.5337351292573658
 31
0.0
  0
LINE
  5
128
100
AcDbEntity
100
AcDbLine
  8
baering
 62
256
370
-1
  6
ByLayer
 10
815.9537975660221036
 20
1144.5337351292573658
 30
0.0
 11
816.4470212078898612
 21
1144.0233060115103854
 31
0.0
  0
LINE
  5
129
100
AcDbEntity
100
AcDbLine
  8
baering
 62
256
370
-1
  6
ByLayer
 10
816.4470212078898612
 20
1144.0233060115103854
 30
0.0
 11
816.4470212078898612
 21
1144.0233060115103854
 31
0.0
  0
LINE
  5
12A
100
AcDbEntity
100
AcDbLine
  8
baering
 62
256
370
-1
  6
ByLayer
 10
816.4470212078898612
 20
1144.0233060115103854
 30
0.0
 11
816.7699814912759848
 21
1144.0239637258846415
 31
0.0
  0
LINE
  5
12B
100
AcDbEntity
100
AcDbLine
  8
baering
 62
256
370
-1
  6
ByLayer
 10
816.7699814912759848
 20
1144.0239637258846415
 30
0.0
 11
816.7689749620478779
 21
1144.7275276563125317
 31
0.0
  0
LINE
  5
12C
100
AcDbEntity
100
AcDbLine
  8
baering
 62
256
370
-1
  6
ByLayer
 10
816.7689749620478779
 20
1144.7275276563125317
 30
0.0
 11
816.4537997716421387
 21
1144.7365226818737938
 31
0.0
  0
LINE
  5
12D
100
AcDbEntity
100
AcDbLine
  8
baering
 62
256
370
-1
  6
ByLayer
 10
816.4537997716421387
 20
1144.7365226818737938
 30
0.0
 11
816.4523786593364321
 21
1145.48874792062702
 31
0.0
  0
LINE
  5
12E
100
AcDbEntity
100
AcDbLine
  8
baering
 62
256
370
-1
  6
ByLayer
 10
816.4523786593364321
 20
1145.48874792062702
 30
0.0
 11
815.9483865620038614
 21
1145.4898988365355308
 31
0.0
  0
LINE
  5
12F
100
AcDbEntity
100
AcDbLine
  8
baering
 62
256
370
-1
  6
ByLayer
 10
815.9483865620038614
 20
1145.4898988365355308
 30
0.0
 11
815.9484747026666582
 21
1144.7303027790219403
 31
0.0
  0
LINE
  5
130
100
AcDbEntity
100
AcDbLine
  8
baering
 62
256
370
-1
  6
ByLayer
 10
815.9484747026666582
 20
1144.7303027790219403
 30
0.0
 11
812.0870390443874385
 21
1144.7428669376690777
 31
0.0
  0
LINE
  5
131
100
AcDbEntity
100
AcDbLine
  8
baering
 62
256
370
-1
  6
ByLayer
 10
812.0870390443874385
 20
1144.7428669376690777
 30
0.0
 11
812.0060782756645494
 21
1144.8235568761763261
 31
0.0
  0
LINE
  5
132
100
AcDbEntity
100
AcDbLine
  8
baering
 62
256
370
-1
  6
ByLayer
 10
812.0060782756645494
 20
1144.8235568761763261
 30
0.0
 11
811.8008541780288851
 21
1144.643564780418501
 31
0.0
  0
LINE
  5
133
100
AcDbEntity
100
AcDbLine
  8
baering
 62
256
370
-1
  6
ByLayer
 10
811.8008541780288851
 20
1144.643564780418501
 30
0.0
 11
811.9993199853017813
 21
1144.435451329736452
 31
0.0
  0
LINE
  5
134
100
AcDbEntity
100
AcDbLine
  8
trapper
 62
256
370
-1
  6
ByLayer
 10
810.1215297637980939
 20
1142.4898354808051408
 30
0.0
 11
810.1285203372736987
 21
1143.4370581867503915
 31
0.0
  0
LINE
  5
135
100
AcDbEntity
100
AcDbLine
  8
trapper
 62
256
370
-1
  6
ByLayer
 10
810.1285203372736987
 20
1143.4370581867503915
 30
0.0
 11
811.0687524697433446
 21
1143.4300676132747867
 31
0.0
  0
LINE
  5
136
100
AcDbEntity
100
AcDbLine
  8
trapper
 62
256
370
-1
  6
ByLayer
 10
811.0687524697433446
 20
1143.4300676132747867
 30
0.0
 11
811.0547713227921349
 21
1142.9372321832440775
 31
0.0
  0
LINE
  5
137
100
AcDbEntity
100
AcDbLine
  8
trapper
 62
256
370
-1
  6
ByLayer
 10
811.0547713227921349
 20
1142.9372321832440775
 30
0.0
 11
810.5898981866639588
 21
1142.4933307675428296
 31
0.0
  0
LINE
  5
138
100
AcDbEntity
100
AcDbLine
  8
trapper
 62
256
370
-1
  6
ByLayer
 10
810.5898981866639588
 20
1142.4933307675428296
 30
0.0
 11
810.1208585398045443
 21
1142.4808247402620509
 31
0.0
  0
LWPOLYLINE
  5
139
  8
trapper
 62
256
370
-1
  6
ByLayer
100
AcDbEntity
100
AcDbPolyline
 90
8
 70
0
 10
810.0394253948569485
 20
1141.6083467435196326
 10
810.0376428820907222
 20
1142.9616991904088081
 10
809.6416650767962437
 20
1142.9588817769354137
 10
809.6461707674565105
 20
1143.4440487602259964
 10
807.2967292482286439
 20
1143.4445193745675624
 10
806.3902057326482691
 20
1142.6027475386715651
 10
806.9082191701228339
 20
1141.603721623542242
 10
810.0394253948569485
 20
1141.6083467435196326
  0
LINE
  5
13A
100
AcDbEntity
100
AcDbLine
  8
trapper
 62
256
370
-1
  6
ByLayer
 10
809.6416650767962437
 20
1142.9588817769354137
 30
0.0
 11
809.6531311077951614
 21
1144.0242928759550978
 31
0.0
  0
LINE
  5
13B
100
AcDbEntity
100
AcDbLine
  8
trapper
 62
256
370
-1
  6
ByLayer
 10
809.6531311077951614
 20
1144.0242928759550978
 30
0.0
 11
810.1250250505358963
 21
1144.0242928759550978
 31
0.0
  0
LINE
  5
13C
100
AcDbEntity
100
AcDbLine
  8
trapper
 62
256
370
-1
  6
ByLayer
 10
810.1250250505358963
 20
1144.0242928759550978
 30
0.0
 11
810.1250377572083607
 21
1142.9651685878964145
 31
0.0
  0
LINE
  5
13D
100
AcDbEntity
100
AcDbLine
  8
baering
 62
256
370
-1
  6
ByLayer
 10
816.4479012106543223
 20
1147.1123782004729037
 30
0.0
 11
815.9482035590732494
 21
1147.1123782004729037
 31
0.0
  0
LINE
  5
13E
100
AcDbEntity
100
AcDbLine
  8
baering
 62
256
370
-1
  6
ByLayer
 10
815.9482035590732494
 20
1147.1123782004729037
 30
0.0
 11
815.9518264303708293
 21
1148.9610204747943953
 31
0.0
  0
LINE
  5
13F
100
AcDbEntity
100
AcDbLine
  8
baering
 62
256
370
-1
  6
ByLayer
 10
815.9518264303708293
 20
1148.9610204747943953
 30
0.0
 11
816.4458427546306893
 21
1148.9672669529888935
 31
0.0
  0
LINE
  5
140
100
AcDbEntity
100
AcDbLine
  8
baering
 62
256
370
-1
  6
ByLayer
 10
816.4458427546306893
 20
1148.9672669529888935
 30
0.0
 11
816.4479012106543223
 21
1147.1123782004729037
 31
0.0
  0
LINE
  5
141
100
AcDbEntity
100
AcDbLine
  8
baering
 62
256
370
-1
  6
ByLayer
 10
815.9497359368912157
 20
1150.6377673275867437
 30
0.0
 11
816.4379357701342315
 21
1150.6377673275867437
 31
0.0
  0
LINE
  5
142
100
AcDbEntity
100
AcDbLine
  8
baering
 62
256
370
-1
  6
ByLayer
 10
816.4379357701342315
 20
1150.6377673275867437
 30
0.0
 11
816.4359663236714368
 21
1150.6377673275867437
 31
0.0
  0
LINE
  5
143
100
AcDbEntity
100
AcDbLine
  8
baering
 62
256
370
-1
  6
ByLayer
 10
816.4359663236714368
 20
1150.6377673275867437
 30
0.0
 11
816.4367568534576094
 21
1151.4135753175701211
 31
0.0
  0
LINE
  5
144
100
AcDbEntity
100
AcDbLine
  8
baering
 62
256
370
-1
  6
ByLayer
 10
816.4367568534576094
 20
1151.4135753175701211
 30
0.0
 11
816.7763751540118164
 21
1151.4025008077694565
 31
0.0
  0
LINE
  5
145
100
AcDbEntity
100
AcDbLine
  8
baering
 62
256
370
-1
  6
ByLayer
 10
816.7763751540118164
 20
1151.4025008077694565
 30
0.0
 11
816.7752595692203386
 21
1152.1990283488814839
 31
0.0
  0
LINE
  5
146
100
AcDbEntity
100
AcDbLine
  8
baering
 62
256
370
-1
  6
ByLayer
 10
816.7752595692203386
 20
1152.1990283488814839
 30
0.0
 11
816.4225141069298388
 21
1152.1990485600290413
 31
0.0
  0
LINE
  5
147
100
AcDbEntity
100
AcDbLine
  8
baering
 62
256
370
-1
  6
ByLayer
 10
816.4225141069298388
 20
1152.1990485600290413
 30
0.0
 11
816.4220909637390378
 21
1152.1131504923048396
 31
0.0
  0
LINE
  5
148
100
AcDbEntity
100
AcDbLine
  8
baering
 62
256
370
-1
  6
ByLayer
 10
816.4220909637390378
 20
1152.1131504923048396
 30
0.0
 11
815.9306719661349234
 21
1151.6275128946724635
 31
0.0
  0
LINE
  5
149
100
AcDbEntity
100
AcDbLine
  8
baering
 62
256
370
-1
  6
ByLayer
 10
815.9306719661349234
 20
1151.6275128946724635
 30
0.0
 11
812.2086654711383744
 21
1151.6217423419670922
 31
0.0
  0
LINE
  5
14A
100
AcDbEntity
100
AcDbLine
  8
baering
 62
256
370
-1
  6
ByLayer
 10
812.2086654711383744
 20
1151.6217423419670922
 30
0.0
 11
812.01565599530079
 21
1151.7994214071015904
 31
0.0
  0
LINE
  5
14B
100
AcDbEntity
100
AcDbLine
  8
baering
 62
256
370
-1
  6
ByLayer
 10
812.01565599530079
 20
1151.7994214071015904
 30
0.0
 11
811.8373396914146269
 21
1151.6283918192641522
 31
0.0
  0
LINE
  5
14C
100
AcDbEntity
100
AcDbLine
  8
baering
 62
256
370
-1
  6
ByLayer
 10
811.8373396914146269
 20
1151.6283918192641522
 30
0.0
 11
812.0399324702161721
 21
1151.4160462657901007
 31
0.0
  0
LINE
  5
14D
100
AcDbEntity
100
AcDbLine
  8
baering
 62
256
370
-1
  6
ByLayer
 10
812.0399324702161721
 20
1151.4160462657901007
 30
0.0
 11
812.0804059876646761
 21
1151.4514424559549752
 31
0.0
  0
LINE
  5
14E
100
AcDbEntity
100
AcDbLine
  8
baering
 62
256
370
-1
  6
ByLayer
 10
812.0804059876646761
 20
1151.4514424559549752
 30
0.0
 11
815.9487719463995745
 21
1151.4109665930695883
 31
0.0
  0
LINE
  5
14F
100
AcDbEntity
100
AcDbLine
  8
baering
 62
256
370
-1
  6
ByLayer
 10
815.9487719463995745
 20
1151.4109665930695883
 30
0.0
 11
815.9497359368912157
 21
1150.6377673275867437
 31
0.0
  0
LINE
  5
150
100
AcDbEntity
100
AcDbLine
  8
baering
 62
256
370
-1
  6
ByLayer
 10
811.1032029896704216
 20
1147.0667336307549249
 30
0.0
 11
811.3489178958864159
 21
1147.0667336307549249
 31
0.0
  0
LINE
  5
151
100
AcDbEntity
100
AcDbLine
  8
baering
 62
256
370
-1
  6
ByLayer
 10
811.3489178958864159
 20
1147.0667336307549249
 30
0.0
 11
811.355512002808382
 21
1147.0667336307549249
 31
0.0
  0
LINE
  5
152
100
AcDbEntity
100
AcDbLine
  8
baering
 62
256
370
-1
  6
ByLayer
 10
811.355512002808382
 20
1147.0667336307549249
 30
0.0
 11
811.3561217939084145
 21
1147.0667336307549249
 31
0.0
  0
LINE
  5
153
100
AcDbEntity
100
AcDbLine
  8
baering
 62
256
370
-1
  6
ByLayer
 10
811.3440828460988996
 20
1149.2773616490267159
 30
0.0
 11
811.1147657896140117
 21
1149.2745819076171756
 31
0.0
  0
LINE
  5
154
100
AcDbEntity
100
AcDbLine
  8
baering
 62
256
370
-1
  6
ByLayer
 10
811.1147657896140117
 20
1149.2745819076171756
 30
0.0
 11
811.1147657896140117
 21
1148.6038407094135891
 31
0.0
  0
LINE
  5
155
100
AcDbEntity
100
AcDbLine
  8
baering
 62
256
370
-1
  6
ByLayer
 10
811.1147657896140117
 20
1148.6038407094135891
 30
0.0
 11
810.8314771909952015
 21
1148.6096221093855547
 31
0.0
  0
LINE
  5
156
100
AcDbEntity
100
AcDbLine
  8
baering
 62
256
370
-1
  6
ByLayer
 10
810.8314771909952015
 20
1148.6096221093855547
 30
0.0
 11
810.8314771909952015
 21
1147.6152213142336223
 31
0.0
  0
LINE
  5
157
100
AcDbEntity
100
AcDbLine
  8
baering
 62
256
370
-1
  6
ByLayer
 10
810.8314771909952015
 20
1147.6152213142336223
 30
0.0
 11
811.1032029896704216
 21
1147.6152213142336223
 31
0.0
  0
LINE
  5
158
100
AcDbEntity
100
AcDbLine
  8
baering
 62
256
370
-1
  6
ByLayer
 10
811.1032029896704216
 20
1147.6152213142336223
 30
0.0
 11
811.1032029896704216
 21
1147.0667336307549249
 31
0.0
  0
LINE
  5
159
100
AcDbEntity
100
AcDbLine
  8
baering
 62
256
370
-1
  6
ByLayer
 10
811.3561217939084145
 20
1147.0667336307549249
 30
0.0
 11
811.3440828460988996
 21
1149.2773616490267159
 31
0.0
  0
LINE
  5
15A
100
AcDbEntity
100
AcDbLine
  8
baering
 62
256
370
-1
  6
ByLayer
 10
812.0065432090037802
 20
1152.9776032980264517
 30
0.0
 11
812.2087678449317991
 21
1152.9776138724776047
 31
0.0
  0
LINE
  5
15B
100
AcDbEntity
100
AcDbLine
  8
baering
 62
256
370
-1
  6
ByLayer
 10
812.2087678449317991
 20
1152.9776138724776047
 30
0.0
 11
812.2069964896168131
 21
1152.6392850073054888
 31
0.0
  0
LINE
  5
15C
100
AcDbEntity
100
AcDbLine
  8
baering
 62
256
370
-1
  6
ByLayer
 10
812.2069964896168131
 20
1152.6392850073054888
 30
0.0
 11
812.0157729862364704
 21
1152.6392733863469857
 31
0.0
  0
LINE
  5
15D
100
AcDbEntity
100
AcDbLine
  8
baering
 62
256
370
-1
  6
ByLayer
 10
812.0157729862364704
 20
1152.6392733863469857
 30
0.0
 11
812.0065432090037802
 21
1152.9776032980264517
 31
0.0
  0
LINE
  5
15E
100
AcDbEntity
100
AcDbLine
  8
trapper
 62
256
370
-1
  6
ByLayer
 10
812.0157748893150256
 20
1152.6462143417029438
 30
0.0
 11
812.0156569367852626
 21
1151.7993994299954466
 31
0.0
  0
LWPOLYLINE
  5
15F
  8
trapper
 62
256
370
-1
  6
ByLayer
100
AcDbEntity
100
AcDbPolyline
 90
9
 70
0
 10
810.0913289621221338
 20
1150.9164006981388866
 10
811.1205471895858636
 20
1150.9395262980262942
 10
812.0108827852451441
 20
1151.7951734938544632
 10
812.0166641852168823
 20
1152.8011370889500995
 10
811.0916401897268315
 20
1152.7857883790145479
 10
811.0936550077383345
 20
1152.3140530354316979
 10
810.6811607917280753
 20
1151.8876758934036388
 10
810.0856765946313089
 20
1151.8818944934316733
 10
810.0956197120383422
 20
1150.9164006981388866
  0
LWPOLYLINE
  5
160
  8
trapper
 62
256
370
-1
  6
ByLayer
100
AcDbEntity
100
AcDbPolyline
 90
6
 70
0
 10
810.0848550786486157
 20
1151.9449798906425713
 10
810.0866016186270144
 20
1152.7900791289307563
 10
811.0426877639341683
 20
1152.7885756501602827
 10
811.044926477954732
 20
1152.3312248992415334
 10
810.6490162078849835
 20
1151.9464149171176359
 10
810.0848550786486157
 20
1151.9449798906425713
  0
LINE
  5
161
100
AcDbEntity
100
AcDbLine
  8
baering
 62
256
370
-1
  6
ByLayer
 10
809.6408002209248025
 20
1152.3386250912049036
 30
0.0
 11
810.0856650450043617
 21
1152.3386250912049036
 31
0.0
  0
LINE
  5
162
100
AcDbEntity
100
AcDbLine
  8
baering
 62
256
370
-1
  6
ByLayer
 10
810.0856650450043617
 20
1152.3386250912049036
 30
0.0
 11
810.085744160015679
 21
1153.2490403694046108
 31
0.0
  0
LINE
  5
163
100
AcDbEntity
100
AcDbLine
  8
baering
 62
256
370
-1
  6
ByLayer
 10
810.085744160015679
 20
1153.2490403694046108
 30
0.0
 11
809.6388900048096957
 21
1153.2488487027676456
 31
0.0
  0
LINE
  5
164
100
AcDbEntity
100
AcDbLine
  8
baering
 62
256
370
-1
  6
ByLayer
 10
806.3414739232566717
 20
1154.7102644985532152
 30
0.0
 11
806.8187519164882815
 21
1154.4106202834436772
 31
0.0
  0
LINE
  5
165
100
AcDbEntity
100
AcDbLine
  8
baering
 62
256
370
-1
  6
ByLayer
 10
806.8187519164882815
 20
1154.4106202834436772
 30
0.0
 11
806.9482577099342961
 21
1154.6028871407788756
 31
0.0
  0
LINE
  5
166
100
AcDbEntity
100
AcDbLine
  8
baering
 62
256
370
-1
  6
ByLayer
 10
806.9313750186988727
 20
1154.7212469418739147
 30
0.0
 11
806.9283763379104357
 21
1155.6026239117431942
 31
0.0
  0
LINE
  5
167
100
AcDbEntity
100
AcDbLine
  8
baering
 62
256
370
-1
  6
ByLayer
 10
806.9283763379104357
 20
1155.6026239117431942
 30
0.0
 11
806.4131181383033891
 21
1155.6155588441297368
 31
0.0
  0
LINE
  5
168
100
AcDbEntity
100
AcDbLine
  8
baering
 62
256
370
-1
  6
ByLayer
 10
806.4131181383033891
 20
1155.6155588441297368
 30
0.0
 11
806.4161064045219973
 21
1154.8435900709928319
 31
0.0
  0
LINE
  5
169
100
AcDbEntity
100
AcDbLine
  8
baering
 62
256
370
-1
  6
ByLayer
 10
806.4161064045219973
 20
1154.8435900709928319
 30
0.0
 11
806.3414739232566717
 21
1154.7102644985532152
 31
0.0
  0
LINE
  5
16A
100
AcDbEntity
100
AcDbLine
  8
baering
 62
256
370
-1
  6
ByLayer
 10
806.9336734186176727
 20
1154.5998460454914039
 30
0.0
 11
806.9313750186988727
 21
1154.7212469418739147
 31
0.0
  0
LINE
  5
16B
100
AcDbEntity
100
AcDbLine
  8
baering
 62
256
370
-1
  6
ByLayer
 10
807.08042393095036
 20
1152.7978024787803406
 30
0.0
 11
807.0673232973471158
 21
1152.88993939251759
 31
0.0
  0
LINE
  5
16C
100
AcDbEntity
100
AcDbLine
  8
baering
 62
256
370
-1
  6
ByLayer
 10
807.0673232973471158
 20
1152.88993939251759
 30
0.0
 11
806.8679261176694126
 21
1153.0873122353455074
 31
0.0
  0
LINE
  5
16D
100
AcDbEntity
100
AcDbLine
  8
baering
 62
256
370
-1
  6
ByLayer
 10
806.8679261176694126
 20
1153.0873122353455074
 30
0.0
 11
806.668951756295769
 21
1152.9038313964144891
 31
0.0
  0
LINE
  5
16E
100
AcDbEntity
100
AcDbLine
  8
baering
 62
256
370
-1
  6
ByLayer
 10
806.668951756295769
 20
1152.9038313964144891
 30
0.0
 11
806.7380147549525873
 21
1152.8344379527882211
 31
0.0
  0
LINE
  5
16F
100
AcDbEntity
100
AcDbLine
  8
baering
 62
256
370
-1
  6
ByLayer
 10
806.7380147549525873
 20
1152.8344379527882211
 30
0.0
 11
806.6700984942916648
 21
1152.7687024894878505
 31
0.0
  0
LINE
  5
170
100
AcDbEntity
100
AcDbLine
  8
baering
 62
256
370
-1
  6
ByLayer
 10
806.6700984942916648
 20
1152.7687024894878505
 30
0.0
 11
806.8694243100135282
 21
1152.5831202969875449
 31
0.0
  0
LINE
  5
171
100
AcDbEntity
100
AcDbLine
  8
baering
 62
256
370
-1
  6
ByLayer
 10
806.8694243100135282
 20
1152.5831202969875449
 30
0.0
 11
807.08042393095036
 21
1152.7978024787803406
 31
0.0
  0
LINE
  5
172
100
AcDbEntity
100
AcDbLine
  8
baering
 62
256
370
-1
  6
ByLayer
 10
806.4086984947005021
 20
1156.757300108225536
 30
0.0
 11
806.944937586795163
 21
1156.7594169402784701
 31
0.0
  0
LINE
  5
173
100
AcDbEntity
100
AcDbLine
  8
baering
 62
256
370
-1
  6
ByLayer
 10
806.944937586795163
 20
1156.7594169402784701
 30
0.0
 11
806.9498452499198038
 21
1157.3522551467619905
 31
0.0
  0
LINE
  5
174
100
AcDbEntity
100
AcDbLine
  8
baering
 62
256
370
-1
  6
ByLayer
 10
806.9498452499198038
 20
1157.3522551467619905
 30
0.0
 11
810.7008175516323263
 21
1157.343004906806982
 31
0.0
  0
LINE
  5
175
100
AcDbEntity
100
AcDbLine
  8
baering
 62
256
370
-1
  6
ByLayer
 10
810.7008175516323263
 20
1157.343004906806982
 30
0.0
 11
810.7123757806305093
 21
1157.0516223482277383
 31
0.0
  0
LINE
  5
176
100
AcDbEntity
100
AcDbLine
  8
baering
 62
256
370
-1
  6
ByLayer
 10
810.7123757806305093
 20
1157.0516223482277383
 30
0.0
 11
811.0800773897833551
 21
1157.0516223482277383
 31
0.0
  0
LINE
  5
177
100
AcDbEntity
100
AcDbLine
  8
baering
 62
256
370
-1
  6
ByLayer
 10
811.0800773897833551
 20
1157.0516223482277383
 30
0.0
 11
811.0800773897833551
 21
1156.4307804327979738
 31
0.0
  0
LINE
  5
178
100
AcDbEntity
100
AcDbLine
  8
baering
 62
256
370
-1
  6
ByLayer
 10
811.0800773897833551
 20
1156.4307804327979738
 30
0.0
 11
811.330689035703017
 21
1156.4240746804816808
 31
0.0
  0
LINE
  5
179
100
AcDbEntity
100
AcDbLine
  8
baering
 62
256
370
-1
  6
ByLayer
 10
811.330689035703017
 20
1156.4240746804816808
 30
0.0
 11
811.3286775885713951
 21
1157.3453174667959047
 31
0.0
  0
LINE
  5
17A
100
AcDbEntity
100
AcDbLine
  8
baering
 62
256
370
-1
  6
ByLayer
 10
811.3286775885713951
 20
1157.3453174667959047
 30
0.0
 11
815.9306719661349234
 21
1157.3221918669087245
 31
0.0
  0
LINE
  5
17B
100
AcDbEntity
100
AcDbLine
  8
baering
 62
256
370
-1
  6
ByLayer
 10
815.9306719661349234
 20
1157.3221918669087245
 30
0.0
 11
815.9352064219749536
 21
1156.4576222867374327
 31
0.0
  0
LINE
  5
17C
100
AcDbEntity
100
AcDbLine
  8
baering
 62
256
370
-1
  6
ByLayer
 10
815.9352064219749536
 20
1156.4576222867374327
 30
0.0
 11
816.4185456218308445
 21
1156.4508322491117269
 31
0.0
  0
LINE
  5
17D
100
AcDbEntity
100
AcDbLine
  8
baering
 62
256
370
-1
  6
ByLayer
 10
816.4185456218308445
 20
1156.4508322491117269
 30
0.0
 11
816.4137657477796211
 21
1157.6075617695173605
 31
0.0
  0
LINE
  5
17E
100
AcDbEntity
100
AcDbLine
  8
baering
 62
256
370
-1
  6
ByLayer
 10
816.4137657477796211
 20
1157.6075617695173605
 30
0.0
 11
806.4050302024414805
 21
1157.7049422751454131
 31
0.0
  0
LINE
  5
17F
100
AcDbEntity
100
AcDbLine
  8
baering
 62
256
370
-1
  6
ByLayer
 10
806.4050302024414805
 20
1157.7049422751454131
 30
0.0
 11
806.4086984947005021
 21
1156.757300108225536
 31
0.0
  0
LINE
  5
180
100
AcDbEntity
100
AcDbLine
  8
baering
 62
256
370
-1
  6
ByLayer
 10
816.7736965974503391
 20
1153.3149901926217353
 30
0.0
 11
816.4329291475123682
 21
1153.28515629450294
 31
0.0
  0
LINE
  5
181
100
AcDbEntity
100
AcDbLine
  8
baering
 62
256
370
-1
  6
ByLayer
 10
816.4329291475123682
 20
1153.28515629450294
 30
0.0
 11
815.8731347484653043
 21
1153.8132093622750745
 31
0.0
  0
LINE
  5
182
100
AcDbEntity
100
AcDbLine
  8
baering
 62
256
370
-1
  6
ByLayer
 10
815.8731347484653043
 20
1153.8132093622750745
 30
0.0
 11
813.131533294187193
 21
1153.8287709725070727
 31
0.0
  0
LINE
  5
183
100
AcDbEntity
100
AcDbLine
  8
baering
 62
256
370
-1
  6
ByLayer
 10
813.131533294187193
 20
1153.8287709725070727
 30
0.0
 11
813.1260430928089136
 21
1154.0606801369197001
 31
0.0
  0
LINE
  5
184
100
AcDbEntity
100
AcDbLine
  8
baering
 62
256
370
-1
  6
ByLayer
 10
813.1260430928089136
 20
1154.0606801369197001
 30
0.0
 11
815.9480161660503654
 21
1154.0152310830312672
 31
0.0
  0
LINE
  5
185
100
AcDbEntity
100
AcDbLine
  8
baering
 62
256
370
-1
  6
ByLayer
 10
815.9480161660503654
 20
1154.0152310830312672
 30
0.0
 11
815.943741858696967
 21
1154.8301990184058923
 31
0.0
  0
LINE
  5
186
100
AcDbEntity
100
AcDbLine
  8
baering
 62
256
370
-1
  6
ByLayer
 10
815.943741858696967
 20
1154.8301990184058923
 30
0.0
 11
816.4252431644810031
 21
1154.830026927779727
 31
0.0
  0
LINE
  5
187
100
AcDbEntity
100
AcDbLine
  8
baering
 62
256
370
-1
  6
ByLayer
 10
816.4252431644810031
 20
1154.830026927779727
 30
0.0
 11
816.4280732808681478
 21
1154.0255451822781652
 31
0.0
  0
LINE
  5
188
100
AcDbEntity
100
AcDbLine
  8
baering
 62
256
370
-1
  6
ByLayer
 10
816.4280732808681478
 20
1154.0255451822781652
 30
0.0
 11
816.7726750580297903
 21
1154.0443693388892825
 31
0.0
  0
LINE
  5
189
100
AcDbEntity
100
AcDbLine
  8
baering
 62
256
370
-1
  6
ByLayer
 10
816.7726750580297903
 20
1154.0443693388892825
 30
0.0
 11
816.7736965974503391
 21
1153.3149901926217353
 31
0.0
  0
LINE
  5
18A
100
AcDbEntity
100
AcDbLine
  8
baering
 62
256
370
-1
  6
ByLayer
 10
812.0036054528619616
 20
1153.7149800896177112
 30
0.0
 11
812.2126285508549017
 21
1153.7150087037907724
 31
0.0
  0
LINE
  5
18B
100
AcDbEntity
100
AcDbLine
  8
baering
 62
256
370
-1
  6
ByLayer
 10
812.2126285508549017
 20
1153.7150087037907724
 30
0.0
 11
812.2137858222545219
 21
1153.8302254059017287
 31
0.0
  0
LINE
  5
18C
100
AcDbEntity
100
AcDbLine
  8
baering
 62
256
370
-1
  6
ByLayer
 10
812.2137858222545219
 20
1153.8302254059017287
 30
0.0
 11
812.2979754541187276
 21
1153.8300919833470743
 31
0.0
  0
LINE
  5
18D
100
AcDbEntity
100
AcDbLine
  8
baering
 62
256
370
-1
  6
ByLayer
 10
812.2979754541187276
 20
1153.8300919833470743
 30
0.0
 11
812.3008865754580938
 21
1154.0739696269502019
 31
0.0
  0
LINE
  5
18E
100
AcDbEntity
100
AcDbLine
  8
baering
 62
256
370
-1
  6
ByLayer
 10
812.3008865754580938
 20
1154.0739696269502019
 30
0.0
 11
811.9993199853017813
 21
1154.078826482721297
 31
0.0
  0
LINE
  5
18F
100
AcDbEntity
100
AcDbLine
  8
baering
 62
256
370
-1
  6
ByLayer
 10
811.9993199853017813
 20
1154.078826482721297
 30
0.0
 11
811.9656423872348796
 21
1154.1101612913573717
 31
0.0
  0
LINE
  5
190
100
AcDbEntity
100
AcDbLine
  8
baering
 62
256
370
-1
  6
ByLayer
 10
811.9656423872348796
 20
1154.1101612913573717
 30
0.0
 11
811.8371285475449213
 21
1153.9597404314015421
 31
0.0
  0
LINE
  5
191
100
AcDbEntity
100
AcDbLine
  8
baering
 62
256
370
-1
  6
ByLayer
 10
811.8371285475449213
 20
1153.9597404314015421
 30
0.0
 11
812.0032513372825633
 21
1153.8038631000617897
 31
0.0
  0
LINE
  5
192
100
AcDbEntity
100
AcDbLine
  8
baering
 62
256
370
-1
  6
ByLayer
 10
812.0032513372825633
 20
1153.8038631000617897
 30
0.0
 11
812.0036054528619616
 21
1153.7149800896177112
 31
0.0
  0
LINE
  5
193
100
AcDbEntity
100
AcDbLine
  8
baering
 62
256
370
-1
  6
ByLayer
 10
811.1147657896140117
 20
1150.1298048992568965
 30
0.0
 11
811.3471915241938177
 21
1150.1308239712786872
 31
0.0
  0
LINE
  5
194
100
AcDbEntity
100
AcDbLine
  8
baering
 62
256
370
-1
  6
ByLayer
 10
811.3471915241938177
 20
1150.1308239712786872
 30
0.0
 11
811.3496740434550247
 21
1150.8123794713840198
 31
0.0
  0
LINE
  5
195
100
AcDbEntity
100
AcDbLine
  8
baering
 62
256
370
-1
  6
ByLayer
 10
811.3496740434550247
 20
1150.8123794713840198
 30
0.0
 11
811.4486607391572761
 21
1150.8989484707133215
 31
0.0
  0
LINE
  5
196
100
AcDbEntity
100
AcDbLine
  8
baering
 62
256
370
-1
  6
ByLayer
 10
811.4486607391572761
 20
1150.8989484707133215
 30
0.0
 11
811.2632891105471344
 21
1151.0767068454435957
 31
0.0
  0
LINE
  5
197
100
AcDbEntity
100
AcDbLine
  8
baering
 62
256
370
-1
  6
ByLayer
 10
811.2632891105471344
 20
1151.0767068454435957
 30
0.0
 11
811.1205471895858636
 21
1150.9395262980262942
 31
0.0
  0
LINE
  5
198
100
AcDbEntity
100
AcDbLine
  8
baering
 62
256
370
-1
  6
ByLayer
 10
811.1205471895858636
 20
1150.9395262980262942
 30
0.0
 11
810.9248804725507398
 21
1150.9351298443989435
 31
0.0
  0
LINE
  5
199
100
AcDbEntity
100
AcDbLine
  8
baering
 62
256
370
-1
  6
ByLayer
 10
810.9248804725507398
 20
1150.9351298443989435
 30
0.0
 11
810.924961515561904
 21
1150.8073602223537364
 31
0.0
  0
LINE
  5
19A
100
AcDbEntity
100
AcDbLine
  8
baering
 62
256
370
-1
  6
ByLayer
 10
810.924961515561904
 20
1150.8073602223537364
 30
0.0
 11
811.1147657896140117
 21
1150.8065540986744963
 31
0.0
  0
LINE
  5
19B
100
AcDbEntity
100
AcDbLine
  8
baering
 62
256
370
-1
  6
ByLayer
 10
811.1147657896140117
 20
1150.8065540986744963
 30
0.0
 11
811.1147657896140117
 21
1150.1298048992568965
 31
0.0
  0
LINE
  5
19C
100
AcDbEntity
100
AcDbLine
  8
baering
 62
256
370
-1
  6
ByLayer
 10
811.275985925165628
 20
1145.1939474622402031
 30
0.0
 11
811.4803585340599739
 21
1145.3737064618524073
 31
0.0
  0
LINE
  5
19D
100
AcDbEntity
100
AcDbLine
  8
baering
 62
256
370
-1
  6
ByLayer
 10
811.4803585340599739
 20
1145.3737064618524073
 30
0.0
 11
811.3388778461252286
 21
1145.5208211430372103
 31
0.0
  0
LINE
  5
19E
100
AcDbEntity
100
AcDbLine
  8
baering
 62
256
370
-1
  6
ByLayer
 10
811.3388778461252286
 20
1145.5208211430372103
 30
0.0
 11
811.3425129442969137
 21
1146.0795370700363947
 31
0.0
  0
LINE
  5
19F
100
AcDbEntity
100
AcDbLine
  8
baering
 62
256
370
-1
  6
ByLayer
 10
811.3425129442969137
 20
1146.0795370700363947
 30
0.0
 11
811.1032029896704216
 21
1146.076716888499277
 31
0.0
  0
LINE
  5
1A0
100
AcDbEntity
100
AcDbLine
  8
baering
 62
256
370
-1
  6
ByLayer
 10
811.1032029896704216
 20
1146.076716888499277
 30
0.0
 11
811.099004293427015
 21
1145.4182834853113491
 31
0.0
  0
LINE
  5
1A1
100
AcDbEntity
100
AcDbLine
  8
baering
 62
256
370
-1
  6
ByLayer
 10
811.099004293427015
 20
1145.4182834853113491
 30
0.0
 11
810.9589378849013883
 21
1145.4180886780673063
 31
0.0
  0
LINE
  5
1A2
100
AcDbEntity
100
AcDbLine
  8
baering
 62
256
370
-1
  6
ByLayer
 10
810.9589378849013883
 20
1145.4180886780673063
 30
0.0
 11
810.9578242032691833
 21
1145.3061463058529625
 31
0.0
  0
LINE
  5
1A3
100
AcDbEntity
100
AcDbLine
  8
baering
 62
256
370
-1
  6
ByLayer
 10
810.9578242032691833
 20
1145.3061463058529625
 30
0.0
 11
811.1667983893605651
 21
1145.3084427254802904
 31
0.0
  0
LINE
  5
1A4
100
AcDbEntity
100
AcDbLine
  8
baering
 62
256
370
-1
  6
ByLayer
 10
811.1667983893605651
 20
1145.3084427254802904
 30
0.0
 11
811.275985925165628
 21
1145.1939474622402031
 31
0.0
  0
LINE
  5
1A5
100
AcDbEntity
100
AcDbLine
  8
baering
 62
256
370
-1
  6
ByLayer
 10
811.3722095015104969
 20
1154.6623118893792252
 30
0.0
 11
811.2305008004386764
 21
1154.5289550134880301
 31
0.0
  0
LINE
  5
1A6
100
AcDbEntity
100
AcDbLine
  8
baering
 62
256
370
-1
  6
ByLayer
 10
811.2305008004386764
 20
1154.5289550134880301
 30
0.0
 11
811.1633295493775222
 21
1154.5919835442193744
 31
0.0
  0
LINE
  5
1A7
100
AcDbEntity
100
AcDbLine
  8
baering
 62
256
370
-1
  6
ByLayer
 10
811.1633295493775222
 20
1154.5919835442193744
 30
0.0
 11
810.9153714380277052
 21
1154.5894447239668352
 31
0.0
  0
LINE
  5
1A8
100
AcDbEntity
100
AcDbLine
  8
baering
 62
256
370
-1
  6
ByLayer
 10
810.9153714380277052
 20
1154.5894447239668352
 30
0.0
 11
810.9168522322653416
 21
1154.7382876382557697
 31
0.0
  0
LINE
  5
1A9
100
AcDbEntity
100
AcDbLine
  8
baering
 62
256
370
-1
  6
ByLayer
 10
810.9168522322653416
 20
1154.7382876382557697
 30
0.0
 11
811.0800773897833551
 21
1154.7390623595022134
 31
0.0
  0
LINE
  5
1AA
100
AcDbEntity
100
AcDbLine
  8
baering
 62
256
370
-1
  6
ByLayer
 10
811.0800773897833551
 20
1154.7390623595022134
 30
0.0
 11
811.0800773897833551
 21
1155.6600469730949499
 31
0.0
  0
LINE
  5
1AB
100
AcDbEntity
100
AcDbLine
  8
baering
 62
256
370
-1
  6
ByLayer
 10
811.0800773897833551
 20
1155.6600469730949499
 30
0.0
 11
811.332371129955618
 21
1155.6536755128095137
 31
0.0
  0
LINE
  5
1AC
100
AcDbEntity
100
AcDbLine
  8
baering
 62
256
370
-1
  6
ByLayer
 10
811.332371129955618
 20
1155.6536755128095137
 30
0.0
 11
811.3344589885431333
 21
1154.6974362797052436
 31
0.0
  0
LINE
  5
1AD
100
AcDbEntity
100
AcDbLine
  8
baering
 62
256
370
-1
  6
ByLayer
 10
811.3344589885431333
 20
1154.6974362797052436
 30
0.0
 11
811.3722095015104969
 21
1154.6623118893792252
 31
0.0
  0
LINE
  5
1AE
100
AcDbEntity
100
AcDbLine
  8
baering
 62
256
370
-1
  6
ByLayer
 10
810.767065093349288
 20
1139.1713274358878607
 30
0.0
 11
810.7589339651131013
 21
1138.8855205421727987
 31
0.0
  0
LINE
  5
1AF
100
AcDbEntity
100
AcDbLine
  8
baering
 62
256
370
-1
  6
ByLayer
 10
811.120547189586091
 20
1139.1917215553016831
 30
0.0
 11
810.7618662941638377
 21
1139.1846181053576856
 31
0.0
  0
LINE
  5
1B0
100
AcDbEntity
100
AcDbLine
  8
baering
 62
256
370
-1
  6
ByLayer
 10
815.9753739111531559
 20
1142.3640142935330459
 30
0.0
 11
816.450975361415658
 21
1142.8277699397376637
 31
0.0
  0
LINE
  5
1B1
100
AcDbEntity
100
AcDbLine
  8
baering
 62
256
370
-1
  6
ByLayer
 10
816.450975361415658
 20
1142.8277699397376637
 30
0.0
 11
816.7780408760160071
 21
1142.8277699397376637
 31
0.0
  0
LINE
  5
1B2
100
AcDbEntity
100
AcDbLine
  8
baering
 62
256
370
-1
  6
ByLayer
 10
816.7790518976994463
 20
1142.141159838955673
 30
0.0
 11
816.4692580035249421
 21
1142.141159838955673
 31
0.0
  0
LINE
  5
1B3
100
AcDbEntity
100
AcDbLine
  8
baering
 62
256
370
-1
  6
ByLayer
 10
816.4688367444900905
 20
1141.2697602499786171
 30
0.0
 11
815.9742786376626782
 21
1141.2695243449193185
 31
0.0
  0
LINE
  5
1B4
100
AcDbEntity
100
AcDbLine
  8
baering
 62
256
370
-1
  6
ByLayer
 10
815.9742786376626782
 20
1141.2695243449193185
 30
0.0
 11
815.9711613208053222
 21
1142.1691398640455191
 31
0.0
  0
LINE
  5
1B5
100
AcDbEntity
100
AcDbLine
  8
baering
 62
256
370
-1
  6
ByLayer
 10
815.9711613208053222
 20
1142.1691398640455191
 30
0.0
 11
813.1738328262765663
 21
1142.1860997527855943
 31
0.0
  0
LINE
  5
1B6
100
AcDbEntity
100
AcDbLine
  8
baering
 62
256
370
-1
  6
ByLayer
 10
813.1738328262765663
 20
1142.1860997527855943
 30
0.0
 11
813.1738328262765663
 21
1142.3773008034897884
 31
0.0
  0
LINE
  5
1B7
100
AcDbEntity
100
AcDbLine
  8
baering
 62
256
370
-1
  6
ByLayer
 10
813.1738328262765663
 20
1142.3773008034897884
 30
0.0
 11
815.9753739111531559
 21
1142.3640142935330459
 31
0.0
  0
LINE
  5
1B8
100
AcDbEntity
100
AcDbLine
  8
baering
 62
256
370
-1
  6
ByLayer
 10
811.3633659884022791
 20
1138.8910887567674308
 30
0.0
 11
811.3559464010712645
 21
1139.6962478754419408
 31
0.0
  0
LINE
  5
1B9
100
AcDbEntity
100
AcDbLine
  8
baering
 62
256
370
-1
  6
ByLayer
 10
811.3571290914826477
 20
1139.6948433602024124
 30
0.0
 11
811.1207265062607803
 21
1139.6939417980418057
 31
0.0
  0
LWPOLYLINE
  5
1BA
  8
trapper
 62
256
370
-1
  6
ByLayer
100
AcDbEntity
100
AcDbPolyline
 90
7
 70
0
 10
810.7505375913900707
 20
1138.8853073567954652
 10
810.7563189913618089
 20
1139.1917215553016831
 10
811.120547189586091
 20
1139.1917215553016831
 10
811.120547189586091
 20
1141.4869373441115386
 10
806.9521578099086128
 20
1141.4985001440552423
 10
806.9463764099367609
 20
1138.9026515567109072
 10
810.7507094799246943
 20
1138.8852539471724867
  0
LWPOLYLINE
  5
1BB
  8
trapper
 62
256
370
-1
  6
ByLayer
100
AcDbEntity
100
AcDbPolyline
 90
6
 70
0
 10
811.3633659884022791
 20
1138.8910887567674308
 10
811.3402403885149852
 20
1141.5389699438578646
 10
812.1554177845406457
 20
1142.1922681406729225
 10
815.9711417659375456
 20
1142.1691425407855149
 10
815.9827045658812494
 20
1138.8390561570211048
 10
811.3633659884022791
 20
1138.8910887567674308
  0
LINE
  5
1BC
100
AcDbEntity
100
AcDbLine
  8
baering
 62
256
370
-1
  6
ByLayer
 10
816.7780408760160071
 20
1142.8277699397376637
 30
0.0
 11
816.7790518976994463
 21
1142.141159838955673
 31
0.0
  0
LINE
  5
1BD
100
AcDbEntity
100
AcDbLine
  8
baering
 62
256
370
-1
  6
ByLayer
 10
816.4692580035249421
 20
1142.141159838955673
 30
0.0
 11
816.4688367444900905
 21
1141.2697602499786171
 31
0.0
  0
LINE
  5
1BE
100
AcDbEntity
100
AcDbLine
  8
fyld
 62
256
370
-1
  6
ByLayer
 10
811.1211044248215103
 20
1139.6988519676137912
 30
0.0
 11
811.1207265062607803
 21
1140.6425083019510112
 31
0.0
  0
LINE
  5
1BF
100
AcDbEntity
100
AcDbLine
  8
fyld
 62
256
370
-1
  6
ByLayer
 10
811.1207265062607803
 20
1140.6425083019510112
 30
0.0
 11
811.3474907839375874
 21
1140.6455830718177822
 31
0.0
  0
LINE
  5
1C0
100
AcDbEntity
100
AcDbLine
  8
fyld
 62
256
370
-1
  6
ByLayer
 10
811.3474907839375874
 20
1140.6455830718177822
 30
0.0
 11
811.3559464010712645
 21
1139.6962478754419408
 31
0.0
  0
LINE
  5
1C1
100
AcDbEntity
100
AcDbLine
  8
fyld
 62
256
370
-1
  6
ByLayer
 10
811.3559464010712645
 20
1139.6962478754419408
 30
0.0
 11
811.1211044248215103
 21
1139.6988519676137912
 31
0.0
  0
LINE
  5
1C2
100
AcDbEntity
100
AcDbLine
  8
baering
 62
256
370
-1
  6
ByLayer
 10
812.0060143957230139
 20
1143.27092725370062
 30
0.0
 11
812.2479201840897076
 21
1143.2700939281955925
 31
0.0
  0
LINE
  5
1C3
100
AcDbEntity
100
AcDbLine
  8
baering
 62
256
370
-1
  6
ByLayer
 10
812.2479201840897076
 20
1143.2700939281955925
 30
0.0
 11
812.2479201840897076
 21
1143.5986087429400868
 31
0.0
  0
LINE
  5
1C4
100
AcDbEntity
100
AcDbLine
  8
baering
 62
256
370
-1
  6
ByLayer
 10
812.2479201840897076
 20
1143.5986087429400868
 30
0.0
 11
812.001986476730508
 21
1143.5986287254745548
 31
0.0
  0
LINE
  5
1C5
100
AcDbEntity
100
AcDbLine
  8
baering
 62
256
370
-1
  6
ByLayer
 10
812.001986476730508
 20
1143.5986287254745548
 30
0.0
 11
812.0060143957230139
 21
1143.27092725370062
 31
0.0
  0
LINE
  5
1C6
100
AcDbEntity
100
AcDbLine
  8
fyld
 62
256
370
-1
  6
ByLayer
 10
811.0800773897833551
 20
1155.6553652559173315
 30
0.0
 11
811.0800773897833551
 21
1156.4206733683461152
 31
0.0
  0
LINE
  5
1C7
100
AcDbEntity
100
AcDbLine
  8
fyld
 62
256
370
-1
  6
ByLayer
 10
811.0800773897833551
 20
1156.4206733683461152
 30
0.0
 11
811.3306964526259435
 21
1156.4206777298234101
 31
0.0
  0
LINE
  5
1C8
100
AcDbEntity
100
AcDbLine
  8
fyld
 62
256
370
-1
  6
ByLayer
 10
811.3306964526259435
 20
1156.4206777298234101
 30
0.0
 11
811.3323628425163179
 21
1155.6574711600146657
 31
0.0
  0
LINE
  5
1C9
100
AcDbEntity
100
AcDbLine
  8
fyld
 62
256
370
-1
  6
ByLayer
 10
811.3323628425163179
 20
1155.6574711600146657
 30
0.0
 11
811.0800773897833551
 21
1155.6553652559173315
 31
0.0
  0
LWPOLYLINE
  5
1CA
  8
trapper
 62
256
370
-1
  6
ByLayer
100
AcDbEntity
100
AcDbPolyline
 90
9
 70
0
 10
810.1261463944341585
 20
1141.6083467435196326
 10
811.1226872557904244
 20
1141.6046880748481271
 10
812.0108827852453715
 20
1142.394617139686261
 10
812.0051013852735196
 20
1143.4352691346127813
 10
811.1263285895579429
 20
1143.4294877346408157
 10
811.120547189586091
 20
1142.9207245371212593
 10
810.6175653920382729
 20
1142.429305539517145
 10
810.1145835944905684
 20
1142.429305539517145
 10
810.1261463944341585
 20
1141.6083467435196326
  0
LINE
  5
1CB
100
AcDbEntity
100
AcDbLine
  8
baering
 62
256
370
-1
  6
ByLayer
 10
811.1205488893311895
 20
1141.4869361327673687
 30
0.0
 11
811.116369999706194
 21
1141.604711733710019
 31
0.0
  0
LINE
  5
1CC
100
AcDbEntity
100
AcDbLine
  8
baering
 62
256
370
-1
  6
ByLayer
 10
811.116369999706194
 20
1141.604711733710019
 30
0.0
 11
811.2942508397308075
 21
1141.7529780635900352
 31
0.0
  0
LINE
  5
1CD
100
AcDbEntity
100
AcDbLine
  8
baering
 62
256
370
-1
  6
ByLayer
 10
811.2942508397308075
 20
1141.7529780635900352
 30
0.0
 11
811.4355579703561716
 21
1141.6153611621091386
 31
0.0
  0
LINE
  5
1CE
100
AcDbEntity
100
AcDbLine
  8
baering
 62
256
370
-1
  6
ByLayer
 10
811.4355579703561716
 20
1141.6153611621091386
 30
0.0
 11
811.3402439011476872
 21
1141.5389700487428399
 31
0.0
  0
LINE
  5
1CF
100
AcDbEntity
100
AcDbLine
  8
baering
 62
256
370
-1
  6
ByLayer
 10
811.3402439011476872
 20
1141.5389700487428399
 30
0.0
 11
811.3413138990960078
 21
1141.4842316497640695
 31
0.0
  0
LINE
  5
1D0
100
AcDbEntity
100
AcDbLine
  8
baering
 62
256
370
-1
  6
ByLayer
 10
811.3413138990960078
 20
1141.4842316497640695
 30
0.0
 11
811.1205488893311895
 21
1141.4869361327673687
 31
0.0
  0
MTEXT
  5
1D1
100
AcDbEntity
100
AcDbMText
  8
0
 62
256
370
-1
  6
ByLayer
 10
818.0874648428550699
 20
1144.5847462961887686
 30
0.0
 40
0.3370072278210708
 41
0.8425180695526771
 71
1
 72
2
  1
\U+00c5rhusgade\~33
  7
normallatin1
 50
270.0
 73
0
 44
1.0
  0
MTEXT
  5
1D2
100
AcDbEntity
100
AcDbMText
  8
0
 62
256
370
-1
  6
ByLayer
 10
818.006385622492985
 20
1154.2331735192740325
 30
0.0
 40
0.3370072278210708
 41
0.8425180695526771
 71
1
 72
2
  1
\U+00c5rhusgade\~35
  7
normallatin1
 50
270.0
 73
0
 44
1.0
  0
LINE
  5
1D3
100
AcDbEntity
100
AcDbLine
  8
0
 62
256
370
-1
  6
ByLayer
 10
811.9222102668501293
 20
1152.9247801082728984
 30
0.0
 11
811.9477155842212142
 21
1153.8089644438048254
 31
0.0
  0
LINE
  5
1D4
100
AcDbEntity
100
AcDbLine
  8
0
 62
256
370
-1
  6
ByLayer
 10
811.9477155842212142
 20
1153.8089644438048254
 30
0.0
 11
811.1740542906309201
 21
1154.5061097852817511
 31
0.0
  0
LINE
  5
1D5
100
AcDbEntity
100
AcDbLine
  8
0
 62
256
370
-1
  6
ByLayer
 10
811.1740542906309201
 20
1154.5061097852817511
 30
0.0
 11
810.1963504580716062
 21
1154.5146115577388173
 31
0.0
  0
LINE
  5
1D6
100
AcDbEntity
100
AcDbLine
  8
0
 62
256
370
-1
  6
ByLayer
 10
810.1963504580716062
 20
1154.5146115577388173
 30
0.0
 11
810.1963504580716062
 21
1152.9417836531870307
 31
0.0
  0
LINE
  5
1D7
100
AcDbEntity
100
AcDbLine
  8
0
 62
256
370
-1
  6
ByLayer
 10
810.1963504580716062
 20
1152.9417836531870307
 30
0.0
 11
811.6076446859398175
 21
1152.9162783358158322
 31
0.0
  0
LINE
  5
1D8
100
AcDbEntity
100
AcDbLine
  8
0
 62
256
370
-1
  6
ByLayer
 10
809.4566962543094633
 20
1152.8822712459877948
 30
0.0
 11
809.6437352483642371
 21
1152.8737694735307286
 31
0.0
  0
LINE
  5
1D9
100
AcDbEntity
100
AcDbLine
  8
0
 62
256
370
-1
  6
ByLayer
 10
809.6437352483642371
 20
1152.8737694735307286
 30
0.0
 11
809.6182299309931523
 21
1153.2563492340973426
 31
0.0
  0
LINE
  5
1DA
100
AcDbEntity
100
AcDbLine
  8
0
 62
256
370
-1
  6
ByLayer
 10
809.6182299309931523
 20
1153.2563492340973426
 30
0.0
 11
809.9838061466457475
 21
1153.2563492340973426
 31
0.0
  0
LINE
  5
1DB
100
AcDbEntity
100
AcDbLine
  8
0
 62
256
370
-1
  6
ByLayer
 10
809.9838061466457475
 20
1153.2563492340973426
 30
0.0
 11
809.9583008292746626
 21
1154.8291771386491291
 31
0.0
  0
LINE
  5
1DC
100
AcDbEntity
100
AcDbLine
  8
0
 62
256
370
-1
  6
ByLayer
 10
809.9583008292746626
 20
1154.8291771386491291
 30
0.0
 11
811.0800773897833551
 21
1154.8291771386491291
 31
0.0
  0
LINE
  5
1DD
100
AcDbEntity
100
AcDbLine
  8
0
 62
256
370
-1
  6
ByLayer
 10
811.0800773897833551
 20
1154.8291771386491291
 30
0.0
 11
811.0800773897833551
 21
1157.0516223482277383
 31
0.0
  0
LINE
  5
1DE
100
AcDbEntity
100
AcDbLine
  8
0
 62
256
370
-1
  6
ByLayer
 10
811.0800773897833551
 20
1157.0516223482277383
 30
0.0
 11
810.7054426716098305
 21
1157.0516223482277383
 31
0.0
  0
LINE
  5
1DF
100
AcDbEntity
100
AcDbLine
  8
0
 62
256
370
-1
  6
ByLayer
 10
810.7054426716098305
 20
1157.0516223482277383
 30
0.0
 11
810.7008175516323263
 21
1157.343004906806982
 31
0.0
  0
LINE
  5
1E0
100
AcDbEntity
100
AcDbLine
  8
0
 62
256
370
-1
  6
ByLayer
 10
810.7008175516323263
 20
1157.343004906806982
 30
0.0
 11
806.9597192930034453
 21
1157.3522307964708489
 31
0.0
  0
LINE
  5
1E1
100
AcDbEntity
100
AcDbLine
  8
0
 62
256
370
-1
  6
ByLayer
 10
806.9597192930034453
 20
1157.3522307964708489
 30
0.0
 11
806.9334238702143693
 21
1154.613027128384374
 31
0.0
  0
LINE
  5
1E2
100
AcDbEntity
100
AcDbLine
  8
0
 62
256
370
-1
  6
ByLayer
 10
806.9334238702143693
 20
1154.613027128384374
 30
0.0
 11
806.8187519164882815
 21
1154.4106202834436772
 31
0.0
  0
LINE
  5
1E3
100
AcDbEntity
100
AcDbLine
  8
0
 62
256
370
-1
  6
ByLayer
 10
806.8187519164882815
 20
1154.4106202834436772
 30
0.0
 11
806.413469250120329
 21
1153.7336673647655516
 31
0.0
  0
LINE
  5
1E4
100
AcDbEntity
100
AcDbLine
  8
0
 62
256
370
-1
  6
ByLayer
 10
806.413469250120329
 20
1153.7336673647655516
 30
0.0
 11
807.0673232973471158
 21
1152.88993939251759
 31
0.0
  0
LINE
  5
1E5
100
AcDbEntity
100
AcDbLine
  8
0
 62
256
370
-1
  6
ByLayer
 10
807.0673232973471158
 20
1152.88993939251759
 30
0.0
 11
809.0316076314576321
 21
1152.88993939251759
 31
0.0
  0
LINE
  5
1E6
100
AcDbEntity
100
AcDbLine
  8
0
 62
256
370
-1
  6
ByLayer
 10
809.0231058590005659
 20
1152.88993939251759
 30
0.0
 11
809.0146109699561521
 21
1152.7959538880616037
 31
0.0
  0
LINE
  5
1E7
100
AcDbEntity
100
AcDbLine
  8
0
 62
256
370
-1
  6
ByLayer
 10
807.0737508928318675
 20
1152.7910129766185037
 30
0.0
 11
806.3393294128962907
 21
1152.0437736926426169
 31
0.0
  0
LINE
  5
1E8
100
AcDbEntity
100
AcDbLine
  8
0
 62
256
370
-1
  6
ByLayer
 10
806.3393294128962907
 20
1152.0437736926426169
 30
0.0
 11
806.888562410218583
 21
1150.9279634980825904
 31
0.0
  0
LINE
  5
1E9
100
AcDbEntity
100
AcDbLine
  8
0
 62
256
370
-1
  6
ByLayer
 10
806.888562410218583
 20
1150.9279634980825904
 30
0.0
 11
810.0047369950259508
 21
1150.9164221107314461
 31
0.0
  0
LINE
  5
1EA
100
AcDbEntity
100
AcDbLine
  8
0
 62
256
370
-1
  6
ByLayer
 10
810.0047369950259508
 20
1150.9164221107314461
 30
0.0
 11
810.0092625315588748
 21
1152.3386250912049036
 31
0.0
  0
LINE
  5
1EB
100
AcDbEntity
100
AcDbLine
  8
0
 62
256
370
-1
  6
ByLayer
 10
810.0092625315588748
 20
1152.3386250912049036
 30
0.0
 11
809.6407898853291272
 21
1152.3435500330047034
 31
0.0
  0
LINE
  5
1EC
100
AcDbEntity
100
AcDbLine
  8
0
 62
256
370
-1
  6
ByLayer
 10
809.6407898853291272
 20
1152.3435500330047034
 30
0.0
 11
809.6346592806127092
 21
1152.7953612796275138
 31
0.0
  0
LINE
  5
1ED
100
AcDbEntity
100
AcDbLine
  8
0
 62
256
370
-1
  6
ByLayer
 10
809.6346592806127092
 20
1152.7953612796275138
 30
0.0
 11
809.6346592806127092
 21
1152.7953612796275138
 31
0.0
  0
LINE
  5
1EE
100
AcDbEntity
100
AcDbLine
  8
0
 62
256
370
-1
  6
ByLayer
 10
809.6346592806127092
 20
1152.7953612796275138
 30
0.0
 11
809.6346592806127092
 21
1152.780249976503228
 31
0.0
  0
LINE
  5
1EF
100
AcDbEntity
100
AcDbLine
  8
0
 62
256
370
-1
  6
ByLayer
 10
809.6346592806127092
 20
1152.8057552938744266
 30
0.0
 11
809.6346592806127092
 21
1152.7972535214173604
 31
0.0
  0
LINE
  5
1F0
100
AcDbEntity
100
AcDbLine
  8
0
 62
256
370
-1
  6
ByLayer
 10
809.6346592806127092
 20
1152.7972535214173604
 30
0.0
 11
809.4639900949357525
 21
1152.7993048290757088
 31
0.0
  0
LINE
  5
1F1
100
AcDbEntity
100
AcDbLine
  8
0
 62
256
370
-1
  6
ByLayer
 10
809.4639900949357525
 20
1152.7993048290757088
 30
0.0
 11
809.4639900949357525
 21
1152.8800947922386513
 31
0.0
  0
MTEXT
  5
1F2
100
AcDbEntity
100
AcDbMText
  8
0
 62
256
370
-1
  6
ByLayer
 10
807.4559520728798816
 20
1151.9426855440458439
 30
0.0
 40
0.3370072278210708
 41
0.8425180695526771
 71
1
 72
2
  1
K\U+00f8kken
  7
normallatin1
 50
0.0
 73
0
 44
1.0
  0
MTEXT
  5
1F3
100
AcDbEntity
100
AcDbMText
  8
0
 62
256
370
-1
  6
ByLayer
 10
807.4559520728798816
 20
1144.6962302241865927
 30
0.0
 40
0.3370072278210708
 41
0.8425180695526771
 71
1
 72
2
  1
K\U+00f8kken
  7
normallatin1
 50
0.0
 73
0
 44
1.0
  0
MTEXT
  5
1F4
100
AcDbEntity
100
AcDbMText
  8
0
 62
256
370
-1
  6
ByLayer
 10
810.8004699128148332
 20
1153.7669680021922431
 30
0.0
 40
0.3791331312987047
 41
0.8425180695526771
 71
1
 72
2
  1
Bad
  7
normallatin1
 50
0.0
 73
0
 44
1.0
  0
MTEXT
  5
1F5
100
AcDbEntity
100
AcDbMText
  8
0
 62
256
370
-1
  6
ByLayer
 10
807.9626972001426566
 20
1142.567900689682574
 30
0.0
 40
0.3791331312987047
 41
0.8425180695526771
 71
1
 72
2
  1
Bad
  7
normallatin1
 50
0.0
 73
0
 44
1.0
  0
MTEXT
  5
1F6
100
AcDbEntity
100
AcDbMText
  8
0
 62
256
370
-1
  6
ByLayer
 10
808.0133717128690023
 20
1140.2875476169995181
 30
0.0
 40
0.3791331312987047
 41
0.8425180695526771
 71
1
 72
2
  1
V\U+00e6relse
  7
normallatin1
 50
0.0
 73
0
 44
1.0
  0
MTEXT
  5
1F7
100
AcDbEntity
100
AcDbMText
  8
0
 62
256
370
-1
  6
ByLayer
 10
807.6586501237850371
 20
1149.8143560095418252
 30
0.0
 40
0.3791331312987047
 41
0.8425180695526771
 71
1
 72
2
  1
V\U+00e6relse
  7
normallatin1
 50
0.0
 73
0
 44
1.0
  0
MTEXT
  5
1F8
100
AcDbEntity
100
AcDbMText
  8
0
 62
256
370
-1
  6
ByLayer
 10
807.7599991492375011
 20
1155.4392269221598326
 30
0.0
 40
0.3791331312987047
 41
0.8425180695526771
 71
1
 72
2
  1
V\U+00e6relse
  7
normallatin1
 50
0.0
 73
0
 44
1.0
  0
LINE
  5
1F9
100
AcDbEntity
100
AcDbLine
  8
fyld
 62
256
370
-1
  6
ByLayer
 10
815.9487719463995745
 20
1151.4109665930695883
 30
0.0
 11
815.9484740774569218
 21
1144.7303027810562526
 31
0.0
  0
LINE
  5
1FA
100
AcDbEntity
100
AcDbLine
  8
trapper
 62
256
370
-1
  6
ByLayer
 10
815.9489999999999554
 20
1151.4100000000000819
 30
0.0
 11
815.9479999999999791
 21
1144.7300000000000182
 31
0.0
  0
LINE
  5
1FB
100
AcDbEntity
100
AcDbLine
  8
trapper
 62
256
370
-1
  6
ByLayer
 10
812.0800000000000409
 20
1151.4500000000000455
 30
0.0
 11
815.9489999999999554
 21
1151.4100000000000819
 31
0.0
  0
LINE
  5
1FC
100
AcDbEntity
100
AcDbLine
  8
trapper
 62
256
370
-1
  6
ByLayer
 10
811.3500000000000227
 20
1150.8099999999999454
 30
0.0
 11
812.0800000000000409
 21
1151.4500000000000455
 31
0.0
  0
LINE
  5
1FD
100
AcDbEntity
100
AcDbLine
  8
trapper
 62
256
370
-1
  6
ByLayer
 10
811.3390000000000555
 20
1145.5199999999999818
 30
0.0
 11
811.3500000000000227
 21
1150.8099999999999454
 31
0.0
  0
LINE
  5
1FE
100
AcDbEntity
100
AcDbLine
  8
trapper
 62
256
370
-1
  6
ByLayer
 10
812.0869999999999891
 20
1144.7400000000000091
 30
0.0
 11
811.3390000000000555
 21
1145.5199999999999818
 31
0.0
  0
LINE
  5
1FF
100
AcDbEntity
100
AcDbLine
  8
trapper
 62
256
370
-1
  6
ByLayer
 10
815.9479999999999791
 20
1144.7300000000000182
 30
0.0
 11
812.0869999999999891
 21
1144.7400000000000091
 31
0.0
  0
LINE
  5
200
100
AcDbEntity
100
AcDbLine
  8
trapper
 62
256
370
-1
  6
ByLayer
 10
806.4087062125581724
 20
1144.3602931301029457
 30
0.0
 11
806.9463764099366472
 21
1145.412507924972715
 31
0.0
  0
LINE
  5
201
100
AcDbEntity
100
AcDbLine
  8
trapper
 62
256
370
-1
  6
ByLayer
 10
806.9463764099366472
 20
1145.412507924972715
 30
0.0
 11
806.9463764099366472
 21
1148.0719519120068526
 31
0.0
  0
LINE
  5
202
100
AcDbEntity
100
AcDbLine
  8
trapper
 62
256
370
-1
  6
ByLayer
 10
806.9463764099366472
 20
1148.0719519120068526
 30
0.0
 11
810.8314771909952015
 21
1148.0719519120068526
 31
0.0
  0
LINE
  5
203
100
AcDbEntity
100
AcDbLine
  8
trapper
 62
256
370
-1
  6
ByLayer
 10
810.8314771909952015
 20
1148.0719519120068526
 30
0.0
 11
810.8314771909952015
 21
1147.6152213142336223
 31
0.0
  0
LINE
  5
204
100
AcDbEntity
100
AcDbLine
  8
trapper
 62
256
370
-1
  6
ByLayer
 10
810.8314771909952015
 20
1147.6152213142336223
 30
0.0
 11
811.1032029896704216
 21
1147.6152213142336223
 31
0.0
  0
LINE
  5
205
100
AcDbEntity
100
AcDbLine
  8
trapper
 62
256
370
-1
  6
ByLayer
 10
811.1032029896704216
 20
1147.6152213142336223
 30
0.0
 11
811.1032029896704216
 21
1145.4182893249444533
 31
0.0
  0
LINE
  5
206
100
AcDbEntity
100
AcDbLine
  8
trapper
 62
256
370
-1
  6
ByLayer
 10
811.1032029896704216
 20
1145.4182893249444533
 30
0.0
 11
811.9993199853017813
 21
1144.435451329736452
 31
0.0
  0
LINE
  5
207
100
AcDbEntity
100
AcDbLine
  8
trapper
 62
256
370
-1
  6
ByLayer
 10
811.9993199853017813
 20
1144.435451329736452
 30
0.0
 11
812.0022414826655677
 21
1143.5186004424865587
 31
0.0
  0
LINE
  5
208
100
AcDbEntity
100
AcDbLine
  8
trapper
 62
256
370
-1
  6
ByLayer
 10
812.0022414826655677
 20
1143.5186004424865587
 30
0.0
 11
810.1251617070722659
 21
1143.4988555580430329
 31
0.0
  0
LINE
  5
209
100
AcDbEntity
100
AcDbLine
  8
trapper
 62
256
370
-1
  6
ByLayer
 10
810.1251617070722659
 20
1143.4988555580430329
 30
0.0
 11
810.1250250505358963
 21
1144.0242928759550978
 31
0.0
  0
LINE
  5
20A
100
AcDbEntity
100
AcDbLine
  8
trapper
 62
256
370
-1
  6
ByLayer
 10
810.1250250505358963
 20
1144.0242928759550978
 30
0.0
 11
809.6531311077951614
 21
1144.0242928759550978
 31
0.0
  0
LINE
  5
20B
100
AcDbEntity
100
AcDbLine
  8
trapper
 62
256
370
-1
  6
ByLayer
 10
809.6531311077951614
 20
1144.0242928759550978
 30
0.0
 11
809.6509153167511386
 21
1143.5138961742293304
 31
0.0
  0
LINE
  5
20C
100
AcDbEntity
100
AcDbLine
  8
trapper
 62
256
370
-1
  6
ByLayer
 10
809.6509153167511386
 20
1143.5138961742293304
 30
0.0
 11
807.2597282884090646
 21
1143.5185212942069484
 31
0.0
  0
LINE
  5
20D
100
AcDbEntity
100
AcDbLine
  8
trapper
 62
256
370
-1
  6
ByLayer
 10
807.2597282884090646
 20
1143.5185212942069484
 30
0.0
 11
806.4087062125581724
 21
1144.3602931301029457
 31
0.0
  0
MTEXT
  5
20E
100
AcDbEntity
100
AcDbMText
  8
0
 62
256
370
-1
  6
ByLayer
 10
813.1753332067343081
 20
1148.1120218679261598
 30
0.0
 40
0.3791331312987047
 41
0.8425180695526771
 71
1
 72
2
  1
Stue
  7
normallatin1
 50
0.0
 73
0
 44
1.0
  0
LINE
  5
20F
100
AcDbEntity
100
AcDbLine
  8
fyld
 62
256
370
-1
  6
ByLayer
 10
807.0737508928318675
 20
1152.7910129766185037
 30
0.0
 11
809.0146109699561521
 21
1152.7959538880616037
 31
0.0
  0
ENDSEC
  0
SECTION
  2
OBJECTS
  0
DICTIONARY
  5
C
100
AcDbDictionary
280
0
281
1
  3
ACAD_GROUP
350
D
  3
ACAD_LAYOUT
350
1A
  3
ACAD_MLINESTYLE
350
17
  3
ACAD_PLOTSETTINGS
350
19
  3
ACAD_PLOTSTYLENAME
350
E
  3
AcDbVariableDictionary
350
210
  0
DICTIONARY
  5
D
100
AcDbDictionary
280
0
281
1
  0
ACDBDICTIONARYWDFLT
  5
E
100
AcDbDictionary
281
1
  3
Normal
350
F
100
AcDbDictionaryWithDefault
340
F
  0
ACDBPLACEHOLDER
  5
F
  0
DICTIONARY
  5
17
100
AcDbDictionary
280
0
281
1
  3
Standard
350
18
  0
MLINESTYLE
  5
18
100
AcDbMlineStyle
  2
STANDARD
 70
0
  3

 62
256
 51
90.0
 52
90.0
 71
2
 49
0.5
 62
256
  6
BYLAYER
 49
-0.5
 62
256
  6
BYLAYER
  0
DICTIONARY
  5
19
100
AcDbDictionary
280
0
281
1
  0
DICTIONARY
  5
1A
100
AcDbDictionary
281
1
  3
Layout1
350
1E
  3
Layout2
350
26
  3
Model
350
22
  0
LAYOUT
  5
1E
100
AcDbPlotSettings
  1

  2
C:\Program Files\AutoCAD 2002\plotters\DWF ePlot (optimized for plotting).pc3
  4

  6

 40
0.0
 41
0.0
 42
0.0
 43
0.0
 44
0.0
 45
0.0
 46
0.0
 47
0.0
 48
0.0
 49
0.0
140
0.0
141
0.0
142
1.0
143
1.0
 70
688
 72
0
 73
0
 74
5
  7

 75
16
147
1.0
148
0.0
149
0.0
100
AcDbLayout
  1
Layout1
 70
1
 71
1
 10
0.0
 20
0.0
 11
420.0
 21
297.0
 12
0.0
 22
0.0
 32
0.0
 14
100000000000000000000.0
 24
100000000000000000000.0
 34
100000000000000000000.0
 15
-100000000000000000000.0
 25
-100000000000000000000.0
 35
-100000000000000000000.0
146
0.0
 13
0.0
 23
0.0
 33
0.0
 16
1.0
 26
0.0
 36
0.0
 17
0.0
 27
1.0
 37
0.0
 76
0
330
1B
  0
LAYOUT
  5
22
100
AcDbPlotSettings
  1

  2
C:\Program Files\AutoCAD 2002\plotters\DWF ePlot (optimized for plotting).pc3
  4

  6

 40
0.0
 41
0.0
 42
0.0
 43
0.0
 44
0.0
 45
0.0
 46
0.0
 47
0.0
 48
0.0
 49
0.0
140
0.0
141
0.0
142
1.0
143
1.0
 70
1712
 72
0
 73
0
 74
0
  7

 75
0
147
1.0
148
0.0
149
0.0
100
AcDbLayout
  1
Model
 70
1
 71
0
 10
0.0
 20
0.0
 11
12.0
 21
9.0
 12
0.0
 22
0.0
 32
0.0
 14
0.0
 24
0.0
 34
0.0
 15
0.0
 25
0.0
 35
0.0
146
0.0
 13
0.0
 23
0.0
 33
0.0
 16
1.0
 26
0.0
 36
0.0
 17
0.0
 27
1.0
 37
0.0
 76
0
330
1F
  0
LAYOUT
  5
26
100
AcDbPlotSettings
  1

  2
C:\Program Files\AutoCAD 2002\plotters\DWF ePlot (optimized for plotting).pc3
  4

  6

 40
0.0
 41
0.0
 42
0.0
 43
0.0
 44
0.0
 45
0.0
 46
0.0
 47
0.0
 48
0.0
 49
0.0
140
0.0
141
0.0
142
1.0
143
1.0
 70
688
 72
0
 73
0
 74
5
  7

 75
16
147
1.0
148
0.0
149
0.0
100
AcDbLayout
  1
Layout2
 70
1
 71
2
 10
0.0
 20
0.0
 11
12.0
 21
9.0
 12
0.0
 22
0.0
 32
0.0
 14
0.0
 24
0.0
 34
0.0
 15
0.0
 25
0.0
 35
0.0
146
0.0
 13
0.0
 23
0.0
 33
0.0
 16
1.0
 26
0.0
 36
0.0
 17
0.0
 27
1.0
 37
0.0
 76
0
330
23
  0
DICTIONARY
  5
210
100
AcDbDictionary
281
1
  3
DIMASSOC
350
212
  3
HIDETEXT
350
211
  0
DICTIONARYVAR
  5
211
100
DictionaryVariables
280
0
  1
2
  0
DICTIONARYVAR
  5
212
100
DictionaryVariables
280
0
  1
1
  0
ENDSEC
  0
EOF
